Tablature guitare : Rammstein – Benzin

Band: Rammstein
Album: Rosenrot
Song name: Benzin
Tuning: CGCFAD


[Intro]
D|------------------------------------------|
A|------------------------------------------|
F|------------------------------------------|
C|------------------------------------------|
G|--12------11---------12------11----12/15--|
C|------------------------------------------|

D|------------------------------------------|
A|------------------------------------------|
F|------------------------------------------|
C|------------------------------------------|
G|--12------11---------12------11---\5------|
C|------------------------------------------|


Clean riff (Intro and verses)
D|---------------------------------------------------|
A|---------------------------------------------------|
F|*--------------------------------------------------|
C|*--------------------------------------------------|
G|--12-12-12-12-12-12-12-11-11-11-11-11-11-11-11-11--|
C|--0--0--0--0--0--0--0--0--0--0--0--0--0--0--0--0---|

D|---------------------------------------------------|
A|---------------------------------------------------|
F|--------------------------------------------------*|
C|--------------------------------------------------*|
G|--12-12-12-12-12-12-12-11-11-11-11-11-12/15-15-15--|
C|--0--0--0--0--0--0--0--0--0--0--0--0--0--0--0--0---|


Main riff (Several different parts are overdubbed)

Riff 1:
D|---------------------------------------------------|
A|---------------------------------------------------|
F|*--------------------------------------------------|
C|*--------------------------------------------------|
G|--12-12-12-12-12-12-12-11-11-11-11-11-11-11-11-11--|
C|--0--0--0--0--0--0--0--0--0--0--0--0--0--0--0--0---|

D|---------------------------------------------------|
A|---------------------------------------------------|
F|--------------------------------------------------*|
C|--------------------------------------------------*|
G|--12-12-12-12-12-12-12-11-11-11-11-11-12/15-15-15--|
C|--0--0--0--0--0--0--0--0--0--0--0--0--0--0--0--0---|

Riff 2 same as riff 1


[Chorus]
D|-------------------------------------------------------------------|
A|-------------------------------------------------------------------|
F|-------------------------------------------------------------------|
C|--0---------------1---------------0---------------1-------3--------|
G|--0---------------1---------------0-------0--0--0-1-------3--------|
C|--0---------------1---------------0-------0--0--0-1-------3--------|
pm                                          .  .  .

D|-------------------------------------------------------------------|
A|-------------------------------------------------------------------|
F|-------------------------------------------------------------------|
C|--0---------------1---------------0---------------1-------3--------|
G|--0---------------1---------------0---------------1-------3--------|
C|--0---------------1---------------0---------------1-------3--------|


Bridge (2.28)
D|-------------------------------------------------------------------|
A|-------------------------------------------------------------------|
F|*-----------------------------------------------------------------*|
C|*-0---------------1---------------0---------------1-------3-------*|x2
G|--0---------------1---------------0---------------1-------3--------|
C|--0---------------1---------------0---------------1-------3--------|


Quiet part (2.56)
D|------------------------------------------|
A|------------------------------------------|
F|------------------------------------------|
C|------------------------------------------|
G|--12------11---------12------11----12/15--|
C|------------------------------------------|


Ending chord
D|-----|
A|-----|
F|-----|
C|--0--|
G|--0--|
C|--0--|


************************************

PM. = Palm Mute
| /  Slide up
| \  Slide down

************************************

https://tabs.ultimate-guitar.com/r/rammstein/benzin_ver6_tab.htm