Tablature guitare : Radiohead – Weird Fishes Arpeggi

-------------------------------------------------------------------------------
                             SONG NAME - Radiohead
-------------------------------------------------------------------------------
Tabbed by:Waychee
Email:rvj11@hotmail.com

Tuning:Standard

|--       --|  
|O-       -O|      
|--       --| <---- these are repeat signs      
|--       --|      
|O-       -O|        
|--       --|       

e|-------------------------------------------------------------------------|
B|-------------------------------------------------------------------------|
G|-7--7--7--7--7--7--7--7--7--7--/-9--9--9--9--9--9--9--9--9--9--9--9--9--/|
D|--5--5--5--5--5--5--5--5--5--5----7--7--7--7--7--7--7--7--7--7--7--7--7--|
A|---7--7--7--7--7--7--7--7--7--7----9--9--9--9--9--9--9--9--9--9--9--9--9-|
E|-------------------------------------------------------------------------|

e|--------------------------------------------------------------------|
B|--------------------------------------------------------------------|
G|-14----14----14----14----14----14----14----14----14----14----14----\|
D|---11----11----11----11----11----11----11----11----11----11----11---|
A|-----12----12----12----12----12----12----12----12----12----12----12-|
E|--------------------------------------------------------------------|

e|---------------------------------------------------------|
B|---------------------------------------------------------|
G|-11---11---11---11---11---11---11---11---11---11---11----|
D|---9----9----9----9----9----9----9----9----9----9----9---|
A|----10---10---10---10---10---10---10---10---10---10---10-|
E|---------------------------------------------------------|

e|-------------------------------------------------------------------------|
B|-O-----------------------------------------------------------------------|
G|--7--7--7--7--7--7--7--7--7--7--/-9--9--9--9--9--9--9--9--9--9--9--9--9-/|
D|---5--5--5--5--5--5--5--5--5--5----7--7--7--7--7--7--7--7--7--7--7--7--7-|
A|-O--7--7--7--7--7--7--7--7--7--7----9--9--9--9--9--9--9--9--9--9--9--9--9|
E|-------------------------------------------------------------------------|

e|---------------------------------------------------------------------|
B|---------------------------------------------------------------------|
G|-14----14----14----14----14----12----12----12----11----11----11---\--|
D|---11----11----11----11----11----11----11----11----11----11----11----|
A|-----12----12----12----12----12----12----12----12----12----12----12--|
E|---------------------------------------------------------------------|

e|----------------------------------------------------------|
B|---------------------------------------------------------O|
G|-11---11---11---11---11---11---11---11---11---11---11-----|
D|---9----9----9----9----9----9----9----9----9----9----9----|
A|----10---10---10---10---10---10---10---10---10---10---10-O|
E|----------------------------------------------------------|



e|-------------------------------------------------------------------------|
B|-------------------------------------------------------------------------|
G|-7--7--7--7--7--7--7--7--7--7--/-9--9--9--9--9--9--9--9--9--9--9--9--9--/|
D|--5--5--5--5--5--5--5--5--5--5----7--7--7--7--7--7--7--7--7--7--7--7--7--|
A|---7--7--7--7--7--7--7--7--7--7----9--9--9--9--9--9--9--9--9--9--9--9--9-|
E|-------------------------------------------------------------------------|

e|--------------------------------------------------------------------|
B|--------------------------------------------------------------------|
G|-14----14----14----14----14----14----14----14----14----14----14----\|
D|---11----11----11----11----11----11----11----11----11----11----11---|
A|-----12----12----12----12----12----12----12----12----12----12----12-|
E|--------------------------------------------------------------------|

e|---------------------------------------------------------|
B|---------------------------------------------------------|
G|-11---11---11---11---11---11---11---11---11---11---11----|
D|---9----9----9----9----9----9----9----9----9----9----9---|
A|----10---10---10---10---10---10---10---10---10---10---10-|
E|---------------------------------------------------------|

e|-------------------------------------------------------------------------|
B|O------------------------------------------------------------------------|
G|--7--7--7--7--7--7--7--7--7--7--/-9--9--9--9--9--9--9--9--9--9--9--9--9-/|
D|---5--5--5--5--5--5--5--5--5--5----7--7--7--7--7--7--7--7--7--7--7--7--7-|
A|O---7--7--7--7--7--7--7--7--7--7----9--9--9--9--9--9--9--9--9--9--9--9--9|
E|-------------------------------------------------------------------------|

e|---------------------------------------------------------------------|
B|---------------------------------------------------------------------|
G|-14----14----14----14----14----12----12----12----11----11----11---\--|
D|---11----11----11----11----11----11----11----11----11----11----11----|
A|-----12----12----12----12----12----12----12----12----12----12----12--|
E|---------------------------------------------------------------------|

e|----------------------------------------------------------|
B|---------------------------------------------------------O|
G|-11---11---11---11---11---11---11---11---11---11---11-----|
D|---9----9----9----9----9----9----9----9----9----9----9----|
A|----10---10---10---10---10---10---10---10---10---10---10-O|
E|----------------------------------------------------------|

e|-------------------------------------------------------------------------|
B|-------------------------------------------------------------------------|
G|-7--7--7--7--7--7--7--7--7--7--/-9--9--9--9--9--9--9--9--9--9--9--9--9--/|
D|--5--5--5--5--5--5--5--5--5--5----7--7--7--7--7--7--7--7--7--7--7--7--7--|
A|---7--7--7--7--7--7--7--7--7--7----9--9--9--9--9--9--9--9--9--9--9--9--9-|
E|-------------------------------------------------------------------------|

e|--------------------------------------------------------------------|
B|--------------------------------------------------------------------|
G|-14----14----14----14----14----14----14----14----14----14----14----\|
D|---11----11----11----11----11----11----11----11----11----11----11---|
A|-----12----12----12----12----12----12----12----12----12----12----12-|
E|--------------------------------------------------------------------|

e|---------------------------------------------------------|
B|---------------------------------------------------------|
G|-11---11---11---11---11---11---11---11---11---11---11----|
D|---9----9----9----9----9----9----9----9----9----9----9---|
A|----10---10---10---10---10---10---10---10---10---10---10-|
E|---------------------------------------------------------|

e|--------------------------------------------------------------------|
B|O-------------------------------------------------------------------|
G|-14----14----14----14----14----12----12----12----11----11----11-----|
D|---11----11----11----11----11----11----11----11----11----11----11---|
A|O----12----12----12----12----12----12----12----12----12----12----12-|
E|--------------------------------------------------------------------|

e|---------------------------------------------------------|
B|--------------------------------------------------------O|
G|-11----11----11----11----11----11----11----11----11------|
D|---9-----9-----9-----9-----9-----9-----9-----9-----9-----|
A|----10----10----10----10----10----10----10----10----10--O|
E|---------------------------------------------------------|

e|--------------------------------------------------------------------|
B|O------------------------------------------------------------------O|
G|-11----11----11----11----11----11----11----11----11----11----11-----|
D|---9-----9-----9-----9-----9-----9-----9-----9-----9-----9-----9----|
A|O---10----10----10----10----10----10----10----10----10----10----10-O|
E|--------------------------------------------------------------------|

e|--------------------------------------------------------|
B|--------------------------------------------------------|
G|--------------------------------------------------------|
D|--0-2-4----0-2-4--------0-2-4----0-2-4----0-2-4----0-2--|
A|-2-----0--2------------2-----2--2-----2--2-----0--2---3-|
E|----------------3--0H3----------------------------------|

e|-------------------------------------------------------------|
B|O------------------------------------------------------------|
G|-11----11----11----11----11----11----11----11----11----11----|
D|---9-----9-----9-----9-----9-----9-----9-----9-----9-----9---|
A|O---10----10----10----10----10----10----10----10----10----10-|
E|-------------------------------------------------------------|

e|--------------------------------------------------------------------|
B|--------------------------------------------------------------------|
G|-11----11----11----11----11----11----11----11----11----11----11-----|
D|---12----12----12----12----12----12----12----12----12----12----12---|
A|-----14----14----14----14----14----14----14----14----14----14----14-|
E|--------------------------------------------------------------------|

e|--------------------------------------------------------------|
B|--------------------------------------------------------------|
G|-12----12----12----12----12----11----11----11----11----11-----|
D|---14----14----14----14----14----12----12----12----12----12---|
A|-----14----14----14----14----14----14----14----14----14----14-|
E|--------------------------------------------------------------|

e|--------------------------------------------------------------------|
B|-------------------------------------------------------------------O|
G|-11----11----11----11----11----11----11----11----11----11----11-----|
D|---9-----9-----9-----9-----9-----9-----9-----9-----9-----9-----9----|
A|----10----10----10----10----10----10----10----10----10----10----10-O|
E|--------------------------------------------------------------------|

In the deepest ocean
The bottom of the sea 
Your eyes
They turn me
Why should I stay here?
Why should I stay?

I'd be crazy not to follow
Follow where you lead 
Your eyes
They turn me

Turn me on to phantoms 
I follow to the edge of the earth
And fall off
Everybody leaves
If they get the chance
And this is my chance

I get eaten by the worms 
Weird fishes
Get picked over by the worms
Weird fishes
Weird fishes
Weird fishes

I'll hit the bottom
Hit the bottom and escape
Escape

I'll hit the bottom 
Hit the bottom and escape
Escape




************************************

| /  Slide up
| \  Slide down
|--       --|  
|O-       -O|      
|--       --| <---- these are repeat signs      
|--       --|      
|O-       -O|        
|--       --|       

************************************

https://tabs.ultimate-guitar.com/r/radiohead/weird_fishes_arpeggi_tab.htm