Tablature guitare : Radiohead – Street Spirit Fade Out

----------------------------------------------------------------------
                            Street Spirit - Radiohead
----------------------------------------------------------------------

By: Paul Goulding
Album: The Bends
The hardest part is the alternate picking.
Once you've got that its pretty simple. 

Pretty sure its 100%

All the bars are based on chords so i have included the chord
shapes above the main riffs.


[Intro/Main Riff]

                        Am                      
e|---------0--------------0-------------0----------------------|
B|---------------3--------------1---------------0--------------|
G|------------2------2------2-------2-------2-------2--------2-| x4
D|-----2------------------------------------------------2------|
A|-0-----------------------------------------------------------|
E|-------------------------------------------------------------|


[Verse]

    Am                          x4    Em                            x2
e|----0-------0-------0------------||-----0-------0-------0-----------||
B|--------3-------1-------0--------||---------3-------1-------0-------||
G|------2---2---2---2---2---2---2--||-------0---0---0---0---0---0---0-||
D|---2------------------------2----||-----------------------------2---||
A|-0-------------------------------||---2-----------------------------||
E|---------------------------------||-0-------------------------------||


[Verse]

(Continued)
                                 x2
e|----0-------0-------0------------|The order of the verse bars has  
B|--------3-------1-------0--------|lots of repeats in it and is hard
G|------2---2---2---2---2---2---2--|to tab. So listen to the CD to get
D|---2------------------------2----|an idea of how its supposed to go.
A|-0-------------------------------|
E|---------------------------------|


[Chorus]

         C                              Em
e|-----0-------0-------0-----------|----0-------0-------0------------|
B|---------3-------1-------0-------|--------3-------1-------0-----0--|
G|---0---0---0---0---0---0---0---0-|------0---0---0---0---0---0------|
D|-----------------------------2---|---2------------------------2----|
A|-3-------------------------------|---------------------------------|
E|---------------------------------|-0-------------------------------|

[Chorus] 

(continued) 

   Am                            x2     C
e|-----0-------0-------0-----------||---- 0-------0-------0-----------|
B|---------3-------1-------0-----0-||---------3-------1-------0-------|
G|-------2---2---2---2---2---2-----||---0---0---0---0---0---0---0---0-|
D|---2-------------------------2---||-----------------------------2---|
A|-0-------------------------------||-3-------------------------------|
E|---------------------------------||---------------------------------|


[Chorus] 

(continued)

  Em
e|-----0-------0-------0------------|
B|---------3-------1-------0------0-|
G|-------0---0---0---0---0---0------|
D|---2--------------------------2---|
A|----------------------------------|
E|-0--------------------------------|


[Outro]

   G6                                   E
e|---0---------0--------0-----------|-----0-------0-------0----------|
B|--------3---------1-------0-------|---------3-------1-------0-----0|
G|-0---0----0----0----0---0---0---0-|---------------------------1----|
D|------------------------------0---|---2---2---2---2---2---2-----2--|
A|----------------------------------|--------------------------------|
E|3---------------------------------|-0------------------------------|

   Am                                   
e|---0-------0-------0--------------|-----0-------0-------0----------|
B|-------3-------1---------0--------|---------3-------1-------0------|
G|-----2---2---2---2---2------2---2-|-------2---2---2---2---2---2---0|
D|--2---------------------------2---|---2-------------------------2--|
A|0---------------------------------|-0------------------------------|
E|----------------------------------|--------------------------------|

   G6                                   E
e|-----0-------0-------0-----------|-----0-------0-------0-----------|
B|---------3-------1-------0-------|---------3-------1-------0-----0-|
G|-------0---0---0---0---0---0---0-|-------1-------------------1-----|
D|-----------------------------0---|---2-------2---2---2---2-----2---|
A|---0-----------------------------|---------------------------------|
E|-3-------------------------------|-0-------------------------------|

   Am
e|------0-------0-------0-----------|----|
B|----------3-------1-------0-------|----|
G|--------2---2---2---2---2---2---2-|----|End on A
D|---2--------------------------2---|----|
A|-0--------------------------------|-0--|
E|----------------------------------|----|

https://tabs.ultimate-guitar.com/r/radiohead/street_spirit_fade_out_ver4_tab.htm