Tablature guitare : Radiohead – Creep

HEY. This is and early acoustic version played by Thom which can be found
in
the "My Iron Lung Ep".
The song is in standard tuning and in 4/4 rhythm.
All the chords are Barre chords so you will need to have strengthened your
fingering for these shapes.


[Intro]

   Gmaj                            Gsus4
E--3-------------------------------3-----------3------------------|
B--3-------------------------------3-----------3------------------|
G--4-------------------------------5-----------4------------------|
D--5-------------------------------3-or-x------5------------------|
A--5-------------------------------5-----------5------------------|
E--3-------------------------------3-----------3------------------|
   V . . . V . . ^ V . v . V ^ v ^ V . . ^ V ^ v . . ^ v . V . v ^
   1 . & . 2 . & . 3 . & . 4 . & . 1 . & . 2 . & . 3 . & . 4 . & .

   B                               Bsus4
E--7-------------------------------7-----------7------------------|
B--7-------------------------------7-----------7------------------|
G--8-------------------------------9-----------8------------------|
D--9-------------------------------7-or-x------9------------------|
A--9-------------------------------9-----------9------------------|
E--7-------------------------------7-----------7------------------|
   V . . . V . . ^ V . v . V ^ v ^ V . . ^ V ^ v . . ^ v . V . v ^
   1 . & . 2 . & . 3 . & . 4 . & . 1 . & . 2 . & . 3 . & . 4 . & .


   C                               Csus4
E--8-------------------------------8---------------8---------------|
B--8-------------------------------8---------------8---------------|
G--9-------------------------------10--------------9---------------|
D--10------------------------------8-or-x----------10--------------|
A--10------------------------------10--------------10--------------|
E--8-------------------------------8---------------8---------------|
   V . . . V . . ^ V ^ v . V . v ^ V . v . V . v ^ V ^ v . V . v ^
   1 . & . 2 . & . 3 . & . 4 . & . 1 . & . 2 . & . 3 . & . 4 . & .

   Cm
E--8--------------------------------------------------------------|
B--8--------------------------------------------------------------|
G--8--------------------------------------------------------------|
D--10-------------------------------------------------------------|
A--10-------------------------------------------------------------|
E--8--------------------------------------------------------------|
   V . . . V . v ^ V . . . V . v ^ V . v . V . v ^ V . v . V . v ^
   1 . & . 2 . & . 3 . & . 4 . & . 1 . & . 2 . & . 3 . & . 4 . & .
   
            
                                   When you were here be-
[Verse starts]

   Gmaj
E--3-----------------------3-------3------------------------------|
B--3-----------------------3-------3------------------------------|
G--4-----------------------5-------4------------------------------|
D--5-----------------------3-------5------------------------------|
A--5-----------------------5-------5------------------------------|
E--3-----------------------3-------3------------------------------|
   V . . . V . v ^ V ^ v ^ V ^ v ^ V . v . V . v ^ V . v . V ^ v ^
   1 . & . 2 . & . 3 . & . 4 . & . 1 . & . 2 . & . 3 . & . 4 . & .
  -fore                                        couldn't look you in the-

   B
E--7-----------------------7-------7------------------------------|
B--7-----------------------7-------7------------------------------|
G--8-----------------------9-------8------------------------------|
D--9-----------------------7-------9------------------------------|
A--9-----------------------9-------9------------------------------|
E--7-----------------------7-------7------------------------------|
   V . . . V . v ^ V ^ v ^ V ^ v ^ V . v . V . v ^ V . v . V ^ v ^
   1 . & . 2 . & . 3 . & . 4 . & . 1 . & . 2 . & . 3 . & . 4 . & .
  -eye                                         you're just like an-

   C
E--8-----------------------8-------8------------------------------|
B--8-----------------------8-------8------------------------------|
G--9-----------------------10------9------------------------------|
D--10----------------------8-------10-----------------------------|
A--10----------------------10------10-----------------------------|
E--8-----------------------8-------8------------------------------|
   V . . . V . v ^ V ^ v ^ V ^ v ^ V . v . V . v ^ V ^ v ^ V ^ v ^
   1 . & . 2 . & . 3 . & . 4 . & . 1 . & . 2 . & . 3 . & . 4 . & .
  -angel                                       your skin makes me -

   Cm
E--8-----------------------8-------8------------------------------|
B--8-----------------------8-------8------------------------------|
G--8-----------------------10------8------------------------------|
D--10----------------------8-------10-----------------------------|
A--10----------------------10------10-----------------------------|
E--8-----------------------8-------8------------------------------|
   V . . . V . v ^ V ^ v ^ V ^ v ^ V . v . V . v ^ V . v . V ^ v ^
   1 . & . 2 . & . 3 . & . 4 . & . 1 . & . 2 . & . 3 . & . 4 . & .
  -cry                                         You float like a -


(repeat verse chords)
feather
In a beautiful world
I wish I was special
You're so VERY-

   Cm
E--8-----------------------8-------8------------------------------|
B--8-----------------------8-------8------------------------------|
G--8-----------------------10------8------------------------------|
D--10----------------------8-------10-----------------------------|
A--10----------------------10------10-----------------------------|
E--8-----------------------8-------8------------------------------|
   V . . . V . v ^ V ^ v ^ V ^ v ^ V . v . V . v ^ V . v . V ^ v ^
   1 . & . 2 . & . 3 . & . 4 . & . 1 . & . 2 . & . 3 . & . 4 . & .
  -special                                     but I'm  aa       cr-



[CHORUS] Begins (same chords as verse):

  Gmaj
E--3-----------------------3-------3------------------------------|
B--3-----------------------3-------3------------------------------|
G--4-----------------------5-------4------------------------------|
D--5-----------------------3-------5------------------------------|
A--5-----------------------5-------5------------------------------|
E--3-----------------------3-------3------------------------------|
   V . v . V . v ^ V ^ v ^ V ^ v ^ V . v . V . v ^ V ^ v ^ V ^ v ^
   1 . & . 2 . & . 3 . & . 4 . & . 1 . & . 2 . & . 3 . & . 4 . & .
  -rreep                                           I'm aa        W-

(same as verse chords)
B      Bsus4 B
Weirdo
                         C    Csus4 C
What the hell am I doing here?
          Cm        Csus4 Cm
I don't belong here

I don't care if it hurts
I want to have control
I want a perfect body
I want a perfect soul
I want you to notice when I'm not around
You're so very special
I wish I was special

But I'm a creep
I'm a weirdo
What the hell am I doing--
   Cmaj              Csus?    Cmaj
E--8-----------------------8-------8-------------------------------|
B--8-----------------------8-------8-------------------------------|
G--9-----------------------9-------9-------------------------------|
D--10----------------------12------10------------------------------|
A--10----------------------10------10------------------------------|
E--8-----------------------8-------8-------------------------------|
   V . v . V . v ^ V ^ v ^ V ^ v ^ V . v . V . v ^ V ^ v ^ V ^ v ^
   1 . & . 2 . & . 3 . & . 4 . & . 1 . & . 2 . & . 3 . & . 4 . & .
 --here?   (*take note of the chord here*)      I don't be-

   Cm
E--8-----------------------8-------8------------------------------|
B--8-----------------------8-------8------------------------------|
G--8-----------------------10------8------------------------------|
D--10----------------------8-------10-----------------------------|
A--10----------------------10------10-----------------------------|
E--8-----------------------8-------8------------------------------|
   V . v . V . v ^ V ^ v ^ V ^ v ^ V ^ v ^ V ^ v ^ V ^ v ^ V ^ v ^
   1 . & . 2 . & . 3 . & . 4 . & . 1 . & . 2 . & . 3 . & . 4 . & .
  -long here                        whoah          ooh            -

BRIDGE/INTERLUDE is same chords as verse and chorus but its kinda played like this:

   Gmaj              Gsus4    Gmaj                   Gsus4   Gmaj
E--3-----------------3-------3-----3-----------------3-------3----|
B--3-----------------3-------3-----3-----------------3-------3----|
G--4-----------------5-------4-----4-----------------5-------4----|
D--5-----------------x-------5-----5-----------------x-------5----|
A--5-----------------5-------5-----5-----------------5-------5----|
E--3-----------------3-------3-----3-----------------3-------3----|
   V . v . V . v ^ V ^ v ^ V ^ v ^ V . v . V . v ^ V ^ v ^ V ^ v ^
   1 . & . 2 . & . 3 . & . 4 . & . 1 . & . 2 . & . 3 . & . 4 . & .
-Sheeeeeeeeeeeeeeeeeeeeeeeeee's    r -u - nning       out

B and Bsus4 (sometimes no Bsus4)
--agaaaaaaeeaaaiiiinn....--

   Cmaj              Csus?    Cmaj
E--8-----------------8-------8-----8------------------------------|
B--8-----------------8-------8-----8------------------------------|
G--9-----------------9-------9-----9------------------------------|
D--10----------------12------10----10-----------------------------|
A--10----------------10------10----10-----------------------------|
E--8-----------------8-------8-----8------------------------------|
   V . v . V . v ^ V ^ v ^ V ^ v ^ V . v . V . v ^ V ^ v ^ V ^ v ^
   1 . & . 2 . & . 3 . & . 4 . & . 1 . & . 2 . & . 3 . & . 4 . & .
   She's ------                    running              out....

Cm                     G etc.....B etc...C etc.....Cm etc..
She runs runs runs  RRUUUUUUUUUUNS       RUUUUUUUUNS

(play same as the original verse riff)
Whatever makes you happy
Whatever you want
You're so VERY special
i wish i was special
but i'm a cr-

FINAL CHORUS (the samechords as verse):
  Gmaj
E--3-----------------------3-------3------------------------------|
B--3-----------------------3-------3------------------------------|
G--4-----------------------5-------4------------------------------|
D--5-----------------------x-------5------------------------------|
A--5-----------------------5-------5------------------------------|
E--3-----------------------3-------3------------------------------|
   V . v . V . v ^ V ^ v ^ V ^ v ^ V . v . V . v ^ V ^ v ^ V ^ v ^
   1 . & . 2 . & . 3 . & . 4 . & . 1 . & . 2 . & . 3 . & . 4 . & .
  -rreep                                           I'm aa        W-

(same as verse chords)
B      Bsus4 B
Weirdo
                         C    Csus4 C
What the hell am I doing here?
          Cm        Csus4 Cm
I don't belong here
          Gmaj
i don't belong here.

That's it i hope you enjoy it.  I tried to make it as detailed as possible..
and its annoying... but here it is.. i got tired of typeing. HAVE FUN! 🙂



************************************

| x  Dead note

************************************

Source 1 :

[Intro]

(Guitar 1) 

(clean elec w/ tremolo effect, let ring throughout)
e|----------------------------------|----------------------------------|
B|----------------------------------|3-----------------------3---------|
G|--------------------4-------------|----4-------4---------------------|
D|--------5-------5-----------5-----|--------5-------------------5/----|
A|----5-------5---------------------|----------------------------------|
E|-3--------------------------------|----------------------------------|
   1  &   2   &   3   &   4   &      1   &   2   &   3   &   4   &
                                     
e|----------------------------------|----------------------------------|
B|----------------------------------|----------------------------------|
G|--------8-----------8-------------|9-----------8-----------8---------|
D|------------9---------------------|------------9---------------9-----|
A|----9-----------9-----------------|----9-----------------------------|
E|-7--------------------------------|----------------------------------|
   1  &   2   &   3   &   4   &      1   &   2   &   3   &   4   &
  
e|----------------------------------|----------------------------------|
B|----------------------------------|----------------------------------|
G|--------9-----------9-------------|10----------9-----------9---------|
D|----------------------------------|----------------------------10----|
A|----10------10--------------10----|--------10----------10------------|
E|-8--------------8-----------------|----------------------------------|
   1   &   2   &   3   &   4   &     1   &   2   &   3   &   4   &
   
e|----------------------------------|----------------------------------|
B|----------------------------------|----------------------------------|
G|----8-----------8-----------------|----8-----------8-----------------|
D|--------10----------10------10----|--------10----------10------------|
A|-10---------10----------10--------|10----------10----------10--------|
E|------------------------8---------|----------------------------------|
    1  &   2   &   3   &   4   &     1   &   2   &   3   &   4   &
                                          When you were here before

                                                                           
[Verse 1] 

e|----------------------------------|----------------------------------|
B|----------------------------------|----------------------------------|
G|----------------------------------|4-----------------------4---------|
D|--------5----------5--------------|--------5-------------------5-----|
A|----5-------5---------------5-----|------------5-------5-------------|
E|-3--------------3-----------------|----------------3-----------------|
   1  &   2   &   3   &   4   &      1   &   2   &   3   &   4   &
                                        Couldn't look you in the eye    
 
e|----------------------------------|----------------------------------|
B|----------------------------------|----------------------------------|
G|----------------------------------|8-----------------------8---------|
D|-(8)----9-----------9-------------|----9-------9---------------9-----|
A|----9-----------9-----------9-----|--------9-----------9-------------|
E|-7--------------------------------|----------------------------------|
   1  &   2   &   3   &   4   &      1   &   2   &   3   &   4   &
                                      You're just like an angel
                                                                                    
e|----------------------------------|----------------------------------|
B|----------------------------------|----------------------------------|
G|--------------------9-------------|9---------------------------------|
D|--------10-----10-----------10----|----10------10----------10--------|
A|----10------10--------------------|--------10----------10------10----|
E|-8--------------------------------|----------------------------------|
   1  &   2   &   3   &   4   &      1   &   2   &   3   &   4   &
                                       Your skin makes me cry
                                                                                   
e|----------------------------------|----------------------------------|
B|----------------------------------|----------------------------------|
G|----------------8-----------------|8-------------------8-------------|
D|----10------10------10------10----|--------10--------------10--------|
A|--------10--------------10--------|----10------10--10----------10----|
E|-8--------------------------------|----------------------------------|
   1  &   2   &   3   &   4   &      1   &   2   &   3   &   4   &
                                       You float  like  a  feather 
                                                                                   
e|----------------------------------|3-----------------------3---------|
B|----------------------------------|3-------------3-------------------|
G|--------4-----------4-------4-----|--------4-----4-------------4-----|
D|------------5---------------------|------------5---------------------|
A|----5-----------5-----------------|----------------------------------|
E|-3--------------------------------|----------------------------------|
   1   &   2   &   3   &   4   &     1   &   2   &   3   &   4   &
                                        in a beautiful world
                                                                         
e|----------------------------------|7-----------------------7---------|
B|--------7-----------7-------7-----|7---7-------7---------------7-----|
G|--------8-------8-------8---------|--------8-----------8-------------|
D|----9-------9---------------------|----------------------------------|
A|-9--------------------------------|----------------------------------|
E|----------------------------------|----------------------------------|
   1  &   2   &   3   &   4   &      1   &   2   &   3   &   4   &
                                        I wish I was special                     
 
e|----------------------------------|8-----------------------8---------|
B|------------------------8---------|----8-------8---------------8-----|
G|--------9-------9-----------9-----|--------9-----------9-------------|
D|----10--------------10------------|----------------------------------|
A|-10----------10-------------------|----------------------------------|
E|----------------------------------|----------------------------------|
   1   &   2   &   3   &   4   &     1   &   2   &   3   &   4   &
                                           You're so fuckin'special
  
 (Guitar 1) 

e|----------------------------------|----------------------------------|
B|----8-----------------------------|----------------------------------|
G|--------8-------8-----------------|----8-----------8-----------------|
D|------------10------10------10----|--------10----------10------10----|
A|-10---------------------10--------|10----------10----------10--------|
E|----------------------------------|----------------------------------|
   1  &   2   &   3   &   4   &      1   &   2   &   3   &   4   &
                                                          
(Guitar 2)

(elec. w/ HEAVY dist){mute open strings behind 2nd fret}
e|----------------------------------|----------------------------------|
B|----------------------------------|----------------------------------|
G|----------------x-x---------------|----x-x-----------------x-x-0-0---|
D|----------------x-x---------------|----x-x-----------------x-x-0-0---|
A|----------------x-x---------------|----x-x-----------------x-x-------|
E|----------------x-x---------------|----x-x-----------------x-x-------|
  1   &   2   &   3   &   4   &      1   &   2   &   3   &   4   &                                   
                                                          But I'm   a  


[Chorus] 

(Guitar 2)

e|-3---------------------------------|----------------------------------|
B|-3---------------------------------|----------------------------------|
G|-0---------------------------------|--------------------0---0---0-0---|
D|-0---------------------------------|--------------------0---0---0-0---|
A|-----------------------------------|----------------------------------|
E|-3---------------------------------|--------------------3---3---------|
   1   &   2   &   3   &   4   &      1   &   2   &   3   &   4   &
                                                           
(Guitar 1)

e|--------3-------3-----------------|----------------------------------|
B|------------------------0-1-3-----|----------------------------------|
G|-0------------------0-------------|----0-----------------------------|
D|-0--------------------------------|------------0---------------------|
A|----------------------------------|----------------------------------|
E|-3--------------------------------|--------------------3/-(2-2)\-----|
   1  &   2   &   3   &   4   &      1   &   2   &   3   &   4   &     
   creep                                             I'm a weirdo
  
 (Guitar 2)

e|-7-----------------7-7-7-7---7-----|----------------------------------|
B|-7-----------------7-7-7-7---7-----|----------------0-0-0-0-0---------|
G|-8-----------------8-8-8-8---8-----|----------------------------------|
D|-9---------------------------9-----|----------------------------------|
A|-9---------------------------9-----|----------------------------9-9---|
E|-7---------------------------7-----|----------------------------7-7---|
   1   &   2   &   3   &   4   &      1   &   2   &   3   &   4   &
                                                           
 (Guitar 1)

e|-----------------------------------|----------------------------------|
B|-------------------------7---------|----------------------------------|
G|-------------------------8-9-8-----|----------------------------------|
D|-9-----------------------9---------|----9-----------------------------|
A|-9---------------------------------|------------9-----------9---------|
E|-7---------------------------------|--------------------7-------------|
   1   &   2   &   3   &   4   &      1   &   2   &   3   &   4   &
                                             What the hell am I doin'  
e|-----------------------------------|----------------------------------|
B|-----------------------------------|----------------------------------|
G|-----------------------------------|----------------------------------|
D|-(10)------10-10-10-10/-12-12------|(12)------------------------------|
A|-----------------------------------|----------------------------------|
E|--8--------8--8--8---8/-10-10------|(10)------------------------------|
                                                   
e|-----------------------------------|----------------------------------|
B|------------------------8----------|----------------------------------|
G|-9-----------------------9-10-9----|----------------------------------|
D|-10----------------------10---10---|----10----------------------------|
A|-10--------------------------------|------------10--------------------|
E|-8---------------------------------|------------------------8---------|
   1   &   2   &   3   &   4    &     1   &   2   &   3   &   4   &
   here                                              I don't belong 
 
e|--------------------------------|--------------------------------------|
B|--------------------------------|--------------------------------------|
G|--------------------------------|--------------------------------------|
D|(13)------13-13-13-13/-15-15----|15-15-15-15--15--------------15/---17-|
A|--------------------------------|--------------------------------------|
E|(11)------11-11-11-11/-13-13----|13-13-13-13--13--------------13/---15-|
                                    1        &   2   &   3   &   4   &
  
e|---------------------------------|----8---------------------------------|
B|---------------------------------|----8---------------------------------|
G|-8-------------------------------|----8---------------------------------|
D|-(10)----------------------------|---(10)-------------------------------|
A|-(10)----------------------------|---(10)-------------------------------|
E|-8-------------------------------|----8---------------------------------|
   1   &   2   &   3   &   4   &        1   &   2   &   3   &   4   &
  here                                      2.I don't care if it hurts
 

[Verse 2]            

                    G
I don't care if it hurts 
                    B 
I want to have control 
                  C
I want a perfect body 
                  Cm
I want a perfect soul 

               G
I want you to notice 
               B
When I'm not around 
                    C
You're so fucking special 

                C
I wish I was special 


[Chorus]

            G            B 
But I'm a creep, I'm a weirdo 
                          C
What the hell am I doing here? 
           Cm   
I don't belong here 


[Bridge]

G                      B
She's running out the door
C 
She's running 
    Cm  
She run, run, run, run 
G         B
Run 
C         Cm
Run 


[Verse 3]

                    G
Whatever makes you happy 
              B 
Whatever you want 
                    C
You're so fucking special 
               Cm
I wish I was special 


[Chorus]

            G           B    
But I'm a creep, I'm a weirdo 
                          C   
What the hell am I doing here? 
           Cm 
I don't belong here 
           G  
I don't belong here


***********************************
| /   Slide up
| \   Slide down
| x   Dead note
|(n)  Ghost note
***********************************

Source 2 : https://tabs.ultimate-guitar.com/r/radiohead/creep_tab.htm