Tablature guitare : Queens of the Stone Age – The Vampyre Of Time And Memory

Queens Of The Stone Age - ...Like Clockwork - The Vampyre Of Time And Memory
Tuning: E Standard
Tabbed by: theredlongitude
Email address for comments/corrections/etc: killmashno@yahoo.com

[Piano - Main]

e||-----------------------------------------------------------------|
B||--------10-------------10-------------10----8----6--8--------8---|
G||--------10-------------10-------------10---------------------7---|
D||-----------------------------------------------------------------|
A||-----------------------------------------------------------------|
E||--10-----------10--10------10---8----------------------7---------|

e|--------------------------------------|
B|--------8-----------1-----------5-----|
G|--------7-----------2-----------6-----|
D|--------------------------------------|
A|--------------------------------------|
E|--7--7-----7--1--------1--5--------5--|


[Piano - Transition]

(1:00)
e||--------------------------------------------------|
B||--------6-----------5-----------5-----------5-----|
G||--------7-----------4-----------6-----------6-----|
D||--------------------------------------------------|
A||------------(5)-----------------------------------|
E||--6--------6--4--------4--5--------------5-----5--|


[Guitar Solo 1]

(1:15)
e||-------------------------------------------------------------------------|
B||-------------------------------------------------------------------------|
G||--12b14==============\-----12b14==r12--10h12p10--------------------------|
D||-----------------------------------------------9b10==7-------------------|
A||-----------------------------------------------------------10b12---------|
E||------------------------------------------------------------------10-----|

e|------------------------------------------------------------------------------------||
B|-------------------12b13========-------------------------------------12b13========--||
G|--12b14r12b14--10------------------12b14r12b14==--12g14--12--10--12-----------------||
D|------------------------------------------------------------------------------------||
A|------------------------------------------------------------------------------------||
E|------------------------------------------------------------------------------------||


[Piano - Main]

(1:15)


[Bridge - Piano]

(2:08)
Use the pattern of the beginning of the main piano riff for each grouping

e||-----------------------------------------------|
B||--10---12---6---1---3---6---1---3---6---8---8--|
G||--10---13---7---2---3---7---2---3---7---9---9--|
D||-----------------------------------------------|
A||-----------------------------------------------|
E||--10---12---6---1---3---6---1---3---6---8---8--|


[Bridge - Guitar]

(2:08)
e||--------------------------------------------------------------------|
B||--------------------------------------------------------------------|
G||--------------------------------------------------------------------|
D||--------------------------------------------------------------------|
A||--5--------------5--7----------7b8r7--8--------3--3-----------------|
E||--------------8-----------------------6-----------1--------3b4--3---|

e|------------------------------------------|
B|------------------------------------------|
G|------------------------------------------|
D|-------------------3--------5b7r5---3-----|
A|-------------------3-------------------5--|
E|----3--5--6--------1----------------------|

e|-----------------------------------------------------------------------------------|
B|-----------------------------------------------------------------------------------|
G|---------------------------------0-----2--0----2------------0----------------------|
D|---------2--3-----2--3-----2--3-------------------3------0-----0h2--------2--------|
A|-----------------------------------------------------------------------2--------0--|
E|--------------------------------------------------------------------4--------4-----|

e|-----------------------------------||
B|-----------------------------------||
G|-------------------------0---------||
D|------------0--2b3r2--0-----2b3r2--||
A|------1--3-------------------------||
E|-----------------------------------||


[Guitar Solo]

(3:00)
Here we go. Hope you've got your bending down.

e||-------------------------------------------------------------------------------|
B||-------------------------------------------------------------------------------|
G||-------------------------------------------------------------------------------|
D||-------------------------------------------------------------------------------|
A||--10b12r10b12----8--7------------------------7---7------------8--8-8p7h8-12----|
E||-------------------------10--9----7--5----5----9---9----5h7h9------------------|

e|-----------------------------------------------------------------------------------------------|
B|-----------------------------------------------------------------------------------------------|
G|---14b15r14--12p10--12b13r12--10--9--10--9--10g12---9-----10b12r10--12b14--------12b14r12------|
D|---------------------------------------------------------------------------11--------------11--|
A|-----------------------------------------------------------------------------------------------|
E|-----------------------------------------------------------------------------------------------|

e|----------------------------------------------------------------------------------------|
B|----------------------------------------------------------------------------------------|
G|---14b15r14--12--10-----10b12--12--10--9-----10/12\10--12b14---------12b14r12b14--------|
D|----------------------------------------------------------------------------------11----|
A|--------------------------------------------------------------12------------------------|
E|----------------------------------------------------------------------------------------|

e|------------------------------------------------------------------------------------|
B|------------------------------------------------------------------------------------|
G|------------------------------------------------------------------------------------|
D|-10g12-12-12-12-12-12--10g12-12-12-12-12-12g14--14b15--12g14--12--9g11--9-----------|
A|--------------------------------------------------------------------------12-10--12-|
E|------------------------------------------------------------------------------------|

e|----------------------------------||
B|----------------------------------||
G|----------------------------------||
D|-11--11g14--11-----11/12======fade||
A|----------------------------------||
E|----------------------------------||

Piano's also different here, but too lazy. Have fun.

************************************

| g    Grace note
| (n)  Ghost note
| h    Hammer-on
| p    Pull-off
| r    Release
| b    Bend
| /    Slide up
| \    Slide down 

************************************

https://tabs.ultimate-guitar.com/q/queens_of_the_stone_age/the_vampyre_of_time_and_memory_ver2_tab.htm