Tablature guitare : Queens of the Stone Age – In My Head

[Intro]

e|-------------------------------------------------|
B|-------------------------------------------------|
G|-------------------------------------------------|
D|-------------------------------------------------|
A|-11-11-11-11-11-11-11-11-11-11-11-11-11-11-11-11-|
E|-------------------------------------------------|

e|-------------------------------------------------|
B|-------------------------------------------------|
G|-------------------------------------------------|
D|-------------------------------------------------|
A|-11-11-11-11-10-10-10-10-10-10-10-10-10-10-10-10-|
E|-------------------------------------------------|

e|-------------------------------------------------|
B|-------------------------------------------------|
G|-------------------------------------------------|
D|-------------------------------------------------|
A|-10-10-10-10-9-9-9-9-9-9-9-9-9-9-9-9-9-9-9-9-10--|
E|-------------------------------------------------|

e|-------------------------------------------------|
B|-------------------------------------------------|
G|-------------------------------------------------|
D|-------------------------------------------------|
A|-10-10-10-10-10-10-10-10-10-10-10-10-10-10-10-10-|
E|-------------------------------------------------|


[Verse 1]

e|-|---------------------------------------------------|
B|-|---------------------------------------------------|
G|°|------------------5-5-5-5-5-5-5-5--6-6-6-6-6-6-6-6-|
D|°|-2-2-2-2-2-2-2-2--5-5-5-5-5-5-5-5--6-6-6-6-6-6-6-6-|
A|-|-2-2-2-2-2-2-2-2--3-3-3-3-3-3-3-3--4-4-4-4-4-4-4-4-|
E|-|-0-0-0-0-0-0-0-0-----------------------------------|

e|--------------------------|-|
B|--------------------------|-|
G|--------------------------|°|  Repeat
D|-7-7-7-7-\-5-/-7-\-5------|°|  4 Times
A|-7-7-7-7-\-5-/-7-\-5------|-|
E|-5-5-5-5-\-3-/-5-\-3------|-|


[Chorus]

e|-------------------------------------------------|
B|-------------------------------------------------|
G|-------------------------------------------------|
D|-------------------------------------------------|
A|-14-14-14-14-14-14-14-14-14-14-14-14-14-14-14----|
E|-12-12-12-12-12-12-12-12-12-12-12-12-12-12-12----|

e|-------------------------------------------------|
B|-------------------------------------------------|
G|-------------------------------------------------|
D|-------------------------------------------------|
A|-10-10-10-10-10-10-10-10-10-10-10-10-10-10-10----|
E|-10-10-10-10-10-10-10-10-10-10-10-10-10-10-10----|

e|-------------------------------------------------|
B|-------------------------------------------------|
G|-------------------------------------------------|
D|-------------------------------------------------|
A|-12-12-12-12-12-12-12-12-12-12-12-12-12-12-12----|
E|-10-10-10-10-10-10-10-10-10-10-10-10-10-10-10----|

e|-------------------------------------------------|
B|-------------------------------------------------|
G|-------------------------------------------------|
D|-------------------------------------------------|
A|-13-13-13-13-13-13-13-13-13-13-13-13-13-13-13----|
E|-11-11-11-11-11-11-11-11-11-11-11-11-11-11-11----|


[Verse 2]

e|-|---------------------------------------------------|
B|-|---------------------------------------------------|
G|°|------------------5-5-5-5-5-5-5-5--6-6-6-6-6-6-6-6-|
D|°|-2-2-2-2-2-2-2-2--5-5-5-5-5-5-5-5--6-6-6-6-6-6-6-6-|
A|-|-2-2-2-2-2-2-2-2--3-3-3-3-3-3-3-3--4-4-4-4-4-4-4-4-|
E|-|-0-0-0-0-0-0-0-0-----------------------------------|

e|--------------------------|-|
B|--------------------------|-|
G|--------------------------|°|  Repeat
D|-7-7-7-7-\-5-/-7-\-5------|°|  4 Times
A|-7-7-7-7-\-5-/-7-\-5------|-|
E|-5-5-5-5-\-3-/-5-\-3------|-|


[Chorus]

e|-|-----------------------------------------------|
B|-|-----------------------------------------------|
G|°|-----------------------------------------------|
D|°|-----------------------------------------------|
A|-|-14-14-14-14-14-14-14-14-14-14-14-14-14-14-14--|
E|-|-12-12-12-12-12-12-12-12-12-12-12-12-12-12-12--|

e|-------------------------------------------------|
B|-------------------------------------------------|
G|-------------------------------------------------|
D|-------------------------------------------------|
A|-10-10-10-10-10-10-10-10-10-10-10-10-10-10-10----|
E|-10-10-10-10-10-10-10-10-10-10-10-10-10-10-10----|

e|-------------------------------------------------|
B|-------------------------------------------------|
G|-------------------------------------------------|
D|-------------------------------------------------|
A|-12-12-12-12-12-12-12-12-12-12-12-12-12-12-12----|
E|-10-10-10-10-10-10-10-10-10-10-10-10-10-10-10----|

e|-----------------------------------------------|-|
B|-----------------------------------------------|-|
G|-----------------------------------------------|°|  Repeat
D|-----------------------------------------------|°|  once
A|-13-13-13-13-13-13-13-13-13-13-13-13-13-13-13--|-|
E|-11-11-11-11-11-11-11-11-11-11-11-11-11-11-11--|-|


[Interlude]

e|-------------------------------------------------|
B|-------------------------------------------------|
G|-------------------------------------------------|
D|-1-1-1-1-1-1-1--2-2-2-4-4-4-5-5-5-5-5-5-5-\------|
A|-------------------------------------------------|
E|-------------------------------------------------|

e|-------------------------------------------------|
B|-------------------------------------------------|
G|-------------------------------------------------|
D|-1-1-1-1-1-1-1--2-2-2-4-4-4-5-5-5h7p5h7p5-\------|
A|-------------------------------------------------|
E|-------------------------------------------------|

e|-------------------------------------------------|
B|-------------------------------------------------|
G|-------------------------------------------------|
D|-1-1-1-1-1-1-1--2-2-2-4-4-4-5-5-5h7b9-7-5-\------|
A|-------------------------------------------------|
E|-------------------------------------------------|

e|---------------------------------|
B|---------------------------------|
G|---------------------------------|
D|-1-1-1-1-1-1-1--2-2-2-4-4-4------|
A|---------------------------------|
E|---------------------------------|

 Interlude, continued 

e|-|---------------------------------------------------|
B|-|---------------------------------------------------|
G|°|------------------5-5-5-5-5-5-5-5--6-6-6-6-6-6-6-6-|
D|°|-2-2-2-2-2-2-2-2--5-5-5-5-5-5-5-5--6-6-6-6-6-6-6-6-|
A|-|-2-2-2-2-2-2-2-2--3-3-3-3-3-3-3-3--4-4-4-4-4-4-4-4-|
E|-|-0-0-0-0-0-0-0-0-----------------------------------|

e|--------------------------|-|
B|--------------------------|-|
G|--------------------------|°|  Repeat
D|-7-7-7-7-\-5-/-7-\-5------|°|  once
A|-7-7-7-7-\-5-/-7-\-5------|-|
E|-5-5-5-5-\-3-/-5-\-3------|-|



e|---------------------------------------------------|
B|---------------------------------------------------|
G|---------------------------------------------------|
D|---------------------------------------------------|
A|---------------------------------------------------|
E|-0-0-0-0-0-0-0-0-0-0-0-0-0-3-3-3-3-3-3-3-3-3-3-3-3-|
  ~ ~ ~ ~ ~ ~ ~ ~ ~ ~ ~ ~ ~ ~ ~ ~ ~ ~ ~ ~ ~ ~ ~ ~ ~

e|---------------------------------------------------|
B|---------------------------------------------------|
G|---------------------------------------------------|
D|---------------------------------------------------|
A|---------------------------------------------------|
E|-/-10-10-10-10-10-10-10-10-10-10-10-10-10-10-10-10-|
    ~~ ~~ ~~ ~~ ~~ ~~ ~~ ~~ ~~ ~~ ~~ ~~ ~~ ~~ ~~ ~~

e|---------------------------------------------------|
B|---------------------------------------------------|
G|---------------------------------------------------|
D|---------------------------------------------------|
A|---------------------------------------------------|
E|-11-11-11-11-11-11-11-11-11-11-11-11-11-11-11------|
  ~~ ~~ ~~ ~~ ~~ ~~ ~~ ~~ ~~ ~~ ~~ ~~ ~~ ~~ ~~


[Chorus]

e|-------------------------------------------------|
B|-------------------------------------------------|
G|-------------------------------------------------|
D|-------------------------------------------------|
A|-14-14-14-14-14-14-14-14-14-14-14-14-14-14-14----|
E|-12-12-12-12-12-12-12-12-12-12-12-12-12-12-12----|

e|-------------------------------------------------|
B|-------------------------------------------------|
G|-------------------------------------------------|
D|-------------------------------------------------|
A|-10-10-10-10-10-10-10-10-10-10-10-10-10-10-10----|
E|-10-10-10-10-10-10-10-10-10-10-10-10-10-10-10----|

e|-------------------------------------------------|
B|-------------------------------------------------|
G|-------------------------------------------------|
D|-------------------------------------------------|
A|-12-12-12-12-12-12-12-12-12-12-12-12-12-12-12----|
E|-10-10-10-10-10-10-10-10-10-10-10-10-10-10-10----|

e|-------------------------------------------------|
B|-------------------------------------------------|
G|-------------------------------------------------|
D|-------------------------------------------------|
A|-13-13-13-13-13-13-13-13-13-13-13-13-13-13-13----|
E|-11-11-11-11-11-11-11-11-11-11-11-11-11-11-11----|


[Solo]

e|-|-------------------------------------------------|-|
B|-|-------------------------------------------------|-|
G|°|-9-/-11-11-11-11-11-11--11--11-\-9-/-11-\-9------|°| Repeat 
D|°|-------------------------------------------------|°| 3 times
A|-|-------------------------------------------------|-|
E|-|-------------------------------------------------|-|

e|---------------------------------------------------|
B|---------------------------------------------------|
G|-9-/-11-11-11-11-11-12--12--12-/-14-\-12-\-9-------|
D|---------------------------------------------------|
A|---------------------------------------------------|
E|---------------------------------------------------|

e|--------------------------------------------------------|
B|--------------------------------------------------------|
G|-9-/-11-11-11-11-11-\-9-/-11-/-14-\-11-/-14b16-\-11-\-9-|
D|--------------------------------------------------------|
A|--------------------------------------------------------|
E|--------------------------------------------------------|

e|------------------------------------------------------------|
B|------------------------------------------------------------|
G|-9-/-11-11-11-11-11-\-9-/-11-/-14-\-11-/-14-/-16b18b16-\-14-|
D|------------------------------------------------------------|
A|------------------------------------------------------------|
E|------------------------------------------------------------|

e|---------------------------------------------------|
B|---------------------------------------------------|
G|-9-/-11-11-11-11-11-12--12--12-/-14-\-12-\-9-------|
D|---------------------------------------------------|
A|---------------------------------------------------|
E|---------------------------------------------------|


[Outro]

e|-|-------------------------------------------------|
B|-|-------------------------------------------------|
G|°|-------------------------------------------------|
D|°|-------------------------------------------------|
A|-|-11-11-11-11-11-11-11-11-11-11-11-11-11-11-11-11-|
E|-|-------------------------------------------------|

e|-------------------------------------------------|
B|-------------------------------------------------|
G|-------------------------------------------------|
D|-------------------------------------------------|
A|-11-11-11-11-10-10-10-10-10-10-10-10-10-10-10-10-|
E|-------------------------------------------------|

e|-------------------------------------------------|
B|-------------------------------------------------|
G|-------------------------------------------------|
D|-------------------------------------------------|
A|-10-10-10-10-9-9-9-9-9-9-9-9-9-9-9-9-9-9-9-9-10--|
E|-------------------------------------------------|

e|--------------------------------------------------|-|
B|--------------------------------------------------|-|
G|--------------------------------------------------|°| Repeat
D|--------------------------------------------------|°| Once
A|-10-10-10-10-10-10-10-10-10-10-10-10-10-10-10-(10)|-|
E|--------------------------------------------------|-|



************************************

/ = slide up
\ = slide down
b = bend
h = hammer on
p = pull
(xx) = let it ring

--x--
--x--   => play this palm-muted (put the palm on the bridge behind the pickups... but SOFTLY please.. ^^)
  ~  

|-|
|-|
|°|  =\  Repeat
|°|  =/  (how often = brackets behind it)
|-|
|-|

************************************

https://tabs.ultimate-guitar.com/q/queens_of_the_stone_age/in_my_head_ver4_tab.htm