Tablature guitare : Queen – We Will Rock You

Song: We Will Rock You
Band: Queen
Tabbed by: Sarasman

Its easiest to put your index finger over the e,b,g,d strings on
the 14th fret. The whole solo is based around this finger positioning.
When you come to the part where you bend, you do the first bend normally, but
the second bend you have to pre-bend the 16 to make it sound like 18, then pluck
it and release down to 16.
  


E|-------------------------------------|
B|-------------------------------------|
G|----------5~-----2-x-2--x-x-x-2-x-2--|
D|----------5~-----2-x-2—-x-x-x-2-x-2--|
A|--(7)-----3~-----0-x-0--x-x-x-0-x-0--|
E|-------------------3----x-x-x---3----|


E|----------------------------------------------------|
B|--14h15-15--15p14-----14-14h15-15-15-15p14-15p14----|
G|--14----14--14--------14-14----14-14-14----14-------|
D|--14h16-16--16p14-----14-14h16-16-16-16p14-16p14----|
A|----------------------------------------------------|
E|----------------------------------------------------|

E|-----17p15----14--------------------------------------|
B|--14--------------17---15p14----15~------15p14--------|
G|-----------14----------------14----------------16p14--|
D|------------------------------------------------------|
A|------------------------------------------------------|
E|------------------------------------------------------|

E|------------------------------------|
B|--17-17-14—17b19-17-14--------------|
G|-----------------------18r16-16-14--|
D|------------------------------------|
A|------------------------------------|
E|------------------------------------|

E|--------------------------------------------------------|
B|--14-15p14-15p14-14-14~~---14-15p14-15p14-14-14-----14--|
G|--14-14----14----14-14~~---14-14----14----14-14--14-14--|
D|--14-16p14-16p14-14-14~~---14-16p14-16p14-14-14--14-14--|
A|--0----------------------------------------------0------|
E|--------------------------------------------------------|
                             \_________________________/ 
                             Repeat this sec 2 more times



************************************

| x    Dead note
| (n)  Harmonic
| h    Hammer-on
| p    Pull-off
| r    Release
| b    Bend
| ~    Vibrato 

************************************

https://tabs.ultimate-guitar.com/q/queen/we_will_rock_you_ver3_tab.htm