Tablature guitare : Queen – Bohemian Rhapsody

e|---------------------------------------------------------------------------|
B|---------------------------------------------------------------------------|
G|---------------------------------------------------------------------------|
D|---------------------------------------------------------------------------|
A|---------------------------------------------------------------------------|
E|-5--4-3--------------------------------------------------------------------|

[solo] #1 at 2:36

e|-----------------------------8-10-11-8-10-11-13s10 10-10-13-15-17-20-------|
B|---------------11--8--11b13------------------------------------------------|
G|----10b12r10-8-------------------------------------------------------------|
D|--8------------------------------------------------------------------------|
A|---------------------------------------------------------------------------|
E|---------------------------------------------------------------------------|

e|20-18-15-16-15h16p15----15-------------------------------------------------|
B|---------------------18----18-16-15-16-15h16p15----15----------------------|
G|------------------------------------------------17----17-15----------------|
D|---------------------------------------------------------------------------|
A|---------------------------------------------------------------------------|
E|---------------------------------------------------------------------------|

e|---------------15-16-18-----------------15-16-18-20------------------------|
B|-------15-16-18-----------------15-16-18-----------------------------------|
G|-15-17--------------------15-17--------------------------------------------|
D|---------------------------------------------------------------------------|
A|---------------------------------------------------------------------------|
E|---------------------------------------------------------------------------|

e|-10-11-8--10-11-8--10-11-13s10-----------13--------------------------------|
B|-----------------------------------------------14-14-14s0------------------|
G|--------------------------------10-12-13----13-----------------------------|
D|----------------------------------------------------------7----------------|
A|---------------------------------------------------------------------------|
E|---------------------------------------------------------------------------|


[4:08]

e|---------------------------------------------------------------------------|
B|---------------------------------------------------------------------------|
G|---------------------------------------------------------------------------|
D|---------------------------------------------------------8-----------------|
A|--6-------3-5-6--6-------3----6-------3-5-6-8-------5----8-----------------|
E|----3-4-6----------3-4-6---6----3-4-6---------5-6-8---8--6-----------------|

e|---------------------------------------------------------------------------|
B|---------------------------------------------------------------------------|
G|-8-8-8----------------6----8-8-8-----------3--------------3----------------|
D|-8-8-8-8--8-6-8p6--------8-8-8-8-6--6-4-3--3--3/5-3-------3------3-5p3-----|
A|-6-6-6-8----------8-4----8-6-6-6-6--6-4-3--1--------5-3---1--3/5-------5---|
E|-------6-----------------6-------4--4-2-1---------------1----------------1-|

e|---------------------------------------------------------------------------|
B|---------------------------------------------------------------------------|
G|-3---3---------------------------------------------------------------------|
D|-3---3---------------------------------------------------------------------|
A|-1---1----6-------3-5-6--6-------3----6-------3-5-6-8-------5-7-8----------|
E|---1--------3-4-6----------3-4-6---6----3-4-6---------5-6-8----------------|

e|---------------------------------------------------------------------------|
B|---------------------------------------------------------------------------|
G|-----3-----5---5-6--------------6---6-8-9----------------------------------|
D|-4h6---6h8---8------------6h7-9---9----------------------------------------|
A|--------------------6h7-9--------------------------------------------------|
E|---------------------------------------------------------------------------|

e|----------------------------------------------------6----------------------|
B|------------------------------------------------8-9-6----------------------|
G|---------------------3----7----7----7-8-10-8-10-----7----------------------|
D|-----------3-4-3-4-6--------10---10-----------------8----------------------|
A|-----3-4-6------------------------------------------8----------------------|
E|-4h6------------------------------------------------6----------------------|


[4:56]

e|---------------------------8-----------------------------------------------|
B|-----8-11------8-11------8----8-8h9p8-8-8h9p8-6-8h9p8----------------------|
G|---8---------8---------8---------------------------------------------------|
D|-8---------8--------10-----------------------------------------------------|
A|---------------------------------------------------------------------------|
E|---------------------------------------------------------------------------|

e|--5/10-12-14-15b16-8-8h10\6-8h10\6-----------------------------------------|
B|---------------------------------------------------------------------------|
G|---------------------------------------------------------------------------|
D|---------------------------------------------------------------------------|
A|---------------------------------------------------------------------------|
E|---------------------------------------------------------------------------|


[5:35]

e|---------------------------------------------------------------------------|
B|-11/9-9\8-8---8\5-------6--------------------------------------------------|
G|------------------5-3-2----------------------------------------------------|
D|---------------------------------------------------------------------------|
A|---------------------------------------------------------------------------|
E|---------------------------------------------------------------------------|

********************************

/ Slide UP
\ Slide Down
h Hammer on
p Pull off

********************************

https://tabs.ultimate-guitar.com/q/queen/bohemian_rhapsody_ver2_tab.htm