Tablature guitare : Pink Floyd – Wish You Were Here

[Intro]

                     ^V^       
e|---------------------3------------------------------3---|
B|---------------------3------------------------------3---|
G|---------------------0------------------0-----------0---|x2
D|-------------0--2----2---------------2-----2--------0---|            
A|------0h2------------2------------------------------2---|     
E|---3-----------------x------------------------------3---|      

                     ^V^                              ^V^
e|---------------------3--------------------------------3---|
B|---------------------3--------------------------------3---|
G|---------------------0--------------------------------2---|x2
D|-------------0--2----2------2-----0-------------------2---| 
A|------0h2------------2------------------2-------0-----0---|
E|---3-----------------x--------------------------------0---|

e|---3---|    
B|---3---|
G|---0---|
D|---0---|   (Guitar 1 continues to play over the solo )      
A|---2---|
E|---3---|




[Solo] 

(Guitar 2)

e|----------------------------------------------------------|
B|----------3---5--------3----------------------------------|
G|-----2/4-----------4--------4----2---0--------------------|     
D|------------------------------------------0---------0---0-|
A|-----------------------------------------------1/2--------|
E|----------------------------------------------------------|

e|----3/5/3-------------------------------------------------|
B|----3/5/3----3/5/3----3----3/5/3--------------------------| 
G|-------------2/4/2----0----2/4/2---2p0----2/4-------------|
D|------------------------------------------3/5-------------|
A|----------------------------------------------------------|
E|----------------------------------------------------------|

e|---------------------------------------------------------------------|
B|----------3--------5----5b---5----3--------------3-----5-------------|
G|----2/4-------4----------------------2----4b----------------4b-----2-|
D|---------------------------------------------------------------------|
A|---------------------------------------------------------------------|
E|---------------------------------------------------------------------|

e|---------------------------------------------------------------------|
B|---------3---------5-----5b-----5------3-----------------------------|  
G|----2/4------4-----------------------------2----4b-------------------| 
D|---------------------------------------------------------------------|
A|---------------------------------------------------------------------|
E|---------------------------------------------------------------------|

 
[Verse]
  
C                           D
So, so you think you can tell 
              Am
Heaven from Hell
                   G
Blue Skies from pain
                       D
Can you tell a green field
                    C
From a cold steel rail 
                Am
A smile from a veil
                       G
So you think you can tell
                       C
Did they get you to trade
                    D
Your heroes for ghosts
                  Am
Hot Ashes for trees
                       G
Hot air for a cool breeze
                    D
Cold comfort for change
               C
Did you exchange?
                      Am
A walk on part in the war
                      G
For a lead role in a cage



[Solo]  

(Guitar 1, Guitar 2 plays Intro over Solo)

e|--------10-10-------10-10---12-10-10------|
B|---10/12-------10/12-----------------12---|
G|------------------------------------------|
D|------------------------------------------|
A|------------------------------------------|
E|------------------------------------------|

e|---------10-10-10-12-10------------------------|
B|---10/12--------------------12p10p8------------|
G|-----------------------------------7-7---9-7---|
D|---------------------------------------9-------|
A|-----------------------------------------------|
E|-----------------------------------------------|

e|----------------10-10-10-----------12----------|
B|-----8-10-10/12---------10--12/14----14p12p10--|
G|---9-------------------------------------------|
D|-----------------------------------------------|
A|-----------------------------------------------|
E|-----------------------------------------------|
                                                    
e|---------10---------------------------12---------------|
B|---10/12----12p10p8-10-12-12-8--12/14-----14p12p10--8--|
G|-------------------------------------------------------|
D|-------------------------------------------------------|
A|-------------------------------------------------------|
E|-------------------------------------------------------|


[Chorus]

C                              D 
How I wish, how I wish you were here
            Am                                    G
We're just two lost souls swimming in a fish bowl
                 D
Year after year.
                                  C
Running over the same old ground.
                                  Am
What have we found the same old fears
                             G
Wish you were here...


[Outro]

                     ^V^       
e|---------------------3------------------------------3---|
B|---------------------3------------------------------3---|
G|---------------------0------------------0-----------0---|x2
D|-------------0--2----2---------------2-----2--------0---|            
A|------0h2------------2------------------------------2---|     
E|---3-----------------x------------------------------3---|      

                     ^V^                              ^V^
e|---------------------3--------------------------------3---|
B|---------------------3--------------------------------3---|
G|---------------------0--------------------------------2---|x2
D|-------------0--2----2------2-----0-------------------2---| 
A|------0h2------------2------------------2-------0-----0---|
E|---3-----------------x--------------------------------0---|


***********************************

| h   Hammer-on
| p   Pull-off
| b   Bend
| /   Slide up
| \   Slide down
| x   Dead note
|^V^  Strum a few Times

***********************************

Source 1 : https://tabs.ultimate-guitar.com/p/pink_floyd/wish_you_were_here_ver4_tab.htm

[Intro]   

e------------------|-3--3--3--3-3-|--------------|--3--3--3--3-3--|
B------------------|-3--3--3--3-3-|--------------|--3--3--3--3-3--|
G------------------|-0--0--0--0-0-|----0---------|--0--0--0--0-0--|
D-------------0--2-|-2--2--2--2-2-|-2-----2--0---|--0--0--0--0-0--| x 2
A------0h2---------|-2--2--2--2-2-|--------------|--2--2--2--2-2--|
E---(3)------------|-x--x--x--x-x-|--------------|--3--3--3--3-3--|

             
e------------------|-3--3--3--3-3-|--------------|--3--3--3--3-3-|
B------------------|-3--3--3--3-3-|--------------|--3--3--3--3-3-|
G------------------|-0--0--0--0-0-|--------------|--2--2--2--2-2-|
D-------------0--2-|-2--2--2--2-2-|--2--0--------|--2--2--2--2-2-| x 2
A------0h2---------|-2--2--2--2-2-|--------2--0--|--0--0--0--0-0-|
E---3--------------|-x--x--x--x-x-|--------------|--x--x--x--x-x-|


e------------------|-3--3--3--3-3-|-3--3--3--3-3-|--3--3--3--3-3-|
B------------------|-3--3--3--3-3-|-3--3--3--3-3-|--3--3--3--3-3-|
G------------------|-0--0--0--0-0-|-3--3--3--3-3-|--0--0--0--0-0-|
D------------------|-0--0--0--0-0-|-3--3--3--3-3-|--0--0--0--0-0-|
A---0—2p0------2---|-2--2--2--2-2-|-3--3--3--3-3-|--2--2--2--2-2-|
E---------3-3—-3---|-3--3--3--3-3-|-3--3--3--3-3-|--3--3--3--3-3-|

(Guitar 1 continues to play intro behind Guitar 2’s solo).


[Solo] (2nd Guitar)

e----------------------------------------------------------|
B--------3------5------3-----------------------------------|
G--2h3/4------------4-------------4\2p0--------------------|
D------------------------------------------0---------0---0-|
A-----------------------------------------------1/2--------|
E----------------------------------------------------------|


e----3/5-5/3-----------------------------------------------|
B----3/5-5/3----3/5-5/3---------3/5-5/3-------(/0)---------|
G---------------2/4-4/2----0----2/4-4/2p0-4----------------|
D-----------------------------------------5----------------|
A----------------------------------------------------------|
E----------------------------------------------------------|


e-------------------------------------------------------------------|
B----------3-------5----5b7r5p3-----3--------------3h5--------------|
G----2h3/4------4----------------4------2~----4b6-------4b6---2~----|
D-------------------------------------------------------------------|
A-------------------------------------------------------------------|
E-------------------------------------------------------------------|


e-------------------------------------------------------------------|
B----------3------5----5b7-7r5p3--5---------------------------- ----|
G----2h3/4----4-------------------------2~-------4b6r4----2~--------|
D-------------------------------------------------------------------|
A-------------------------------------------------------------------|
E-------------------------------------------------------------------|


[Verse]              


C                           D
So, so you think you can tell

              Am
Heaven from Hell

                   G
Blue Skies from pain

                       D
Can you tell a green field

                    C
From a cold steel rail

                Am
A smile from a veil

                       G
Do you think you can tell

                       C
Did they get you to trade

                   D
Your heroes for ghosts

                  Am
Hot Ashes for trees

                      G
Hot air for a cool breeze

                    D
Cold comfort for change

              C
Did you exchange?

                      Am
A walk on part in the war

                      G
For a lead role in a cage


[Interlude]

e------------------|-3--3--3--3-3-|--------------|--3--3--3--3-3--|
B------------------|-3--3--3--3-3-|--------------|--3--3--3--3-3--|
G------------------|-0--0--0--0-0-|----0---------|--0--0--0--0-0--|
D-------------0--2-|-2--2--2--2-2-|-2-----2--0---|--0--0--0--0-0--| x 2
A------0h2---------|-2--2--2--2-2-|--------------|--2--2--2--2-2--|
E---(3)------------|-x--x--x--x-x-|--------------|--3--3--3--3-3--|

             
e------------------|-3--3--3--3-3-|--------------|--3--3--3--3-3-|
B------------------|-3--3--3--3-3-|--------------|--3--3--3--3-3-|
G------------------|-0--0--0--0-0-|--------------|--2--2--2--2-2-|
D-------------0--2-|-2--2--2--2-2-|--2--0--------|--2--2--2--2-2-| x 2
A------0h2---------|-2--2--2--2-2-|--------2--0--|--0--0--0--0-0-|
E---3--------------|-x--x--x--x-x-|--------------|--x--x--x--x-x-|


e------------------|-3--3--3--3-3-|-3--3--3--3-3-|--3--3--3--3-3-|
B------------------|-3--3--3--3-3-|-3--3--3--3-3-|--3--3--3--3-3-|
G------------------|-0--0--0--0-0-|-3--3--3--3-3-|--0--0--0--0-0-|
D------------------|-0--0--0--0-0-|-3--3--3--3-3-|--0--0--0--0-0-|
A---0—2p0------2---|-2--2--2--2-2-|-3--3--3--3-3-|--2--2--2--2-2-|
E---------3-3—-3---|-3--3--3--3-3-|-3--3--3--3-3-|--3--3--3--3-3-|


[Chorus]

C                                D
How I wish, how I wish you were here

            Am                                      G
We're just two lost souls swimming in a fish bowl

                      D
Year after year.

                                  C
Running over the same old ground.

                                  Am
What have we found the same old fears

                G
Wish you were here...



***********************************
|  x - Dead note
| (n)- Ghost note
|  h - hammer on
|  p - pull off
|  b - bend string up
|  / - slide up
|  \ - slide down
|  r - realise
|  ~ - vibrato
***********************************

Source 2 : https://tabs.ultimate-guitar.com/p/pink_floyd/wish_you_were_here_ver5_tab.htm

e|------------------------------------------------------------------------|
B|----------3------5-------3----------------------------------------------|
G|---2/4---------------4----------4p2p0-----------------------------------|
D|---------------------------------------0---------------0-0--------------|
A|----------------------------------------------------/2------------------|
E|------------------------------------------------------------------------|

e|--3/5-----5\3-----------------------------------------------|
B|--3/5-----5\3-------3/5-----5\3----------3/5-----5\3--------|
G|--------------------2/4-----4\2p0--------2/4-----4\2p0---0--|
D|------------------------------------------------------------|
A|------------------------------------------------------------|
E|------------------------------------------------------------|

e|--------------------------------------------------------------------------|
B|-----------3---5-------pbr5p3-----3-------------3--5----------------------|
G|---2/4-------4------------------4---2------4b------------4b--2------------|
D|--------------------------------------------------------------------------|
A|--------------------------------------------------------------------------|
E|--------------------------------------------------------------------------|

e|-----------------------------------------------------------------------|
B|-----------3---5-------5b--br5--3---5----------------------------------|
G|----2/4------4---------------------------2------4b---br(4)----2--------|
D|-----------------------------------------------------------------------|
A|-----------------------------------------------------------------------|
E|-----------------------------------------------------------------------|
(Then Return To G...)

*****************************

/   Slide UP
\   Slide Down
p   Pull off
b   Bend
br  Bend relase
pbr Pre bend relase

*****************************

Source 3 (solo) : https://tabs.ultimate-guitar.com/p/pink_floyd/wish_you_were_here_solo_tab.htm

-------------------------------------------------------------------------------
                             Wish You Were Here - Pink Floyd
-------------------------------------------------------------------------------
Tabbed by: Me 😉
E-mail: mckenna7_smith@yahoo.com

Tuning: Standard

Tip - keep 3rd and 4th finger at 3rd fret 1st and 2nd string whole time - SO MUCH EASIER

e|------------------3-3----------------3-3-------|
B|------------------3-3----------------3-3-------|
G|------------------0-0------0---------0-0-------|   X2
D|-----------0--2---2-2---2-----2--0---0-0-------|
A|-------0h2--------X-X----------------2-2-------|
E|----3-------------X-X----------------3-3-------|

e|-------------------3-3-----------------3-3-------|
B|-------------------3-3-----------------3-3-------|
G|-------------------0-0-----------------2-2-------|
D|------------0--2---2-2---2--0----------2-2-------|
A|-------0h2---------X-X---------2--0----X-X-------|
E|----3--------------X-X-----------------X-X-------|

e|----------------3-3----------------3-3-------|
B|----------------3-3----------------3-3-------|
G|----------------0-0----------------0-0-------|
D|---------0--2---2-2---2--0---------0-0-------|
A|----0h2---------X-X---------2-0----X-X-------|
E|----------------X-X----------------X-X-------|

e|-------------3-3---------|
B|-------------3-3---------|
G|-------------0-0---------|
D|-------------0-0---------|
A|---0h2--0----2-2---------|
E|----------3--3-3---------|

Have a friend play this great solo to your riff. It takes a little practice to get the 
timing right but it
sounds great in the end. 🙂

http://tabs.ultimate-guitar.com/p/pink_floyd/wish_you_were_here_solo_tab.htm


************************************

| h   hammer-on
| x   Mute note

************************************

Source 4 (intro) : https://tabs.ultimate-guitar.com/p/pink_floyd/wish_you_were_here_intro_tab.htm