Tablature guitare : Pink Floyd – Hey You

  *Hey You*
                                  The Wall
                                 Pink Floyd

[Intro]

e|-2-----3-----3----2-----3-----3---|-------5-----5----------5-----5---|
B|-----5---5-----5------5---5-----5-|-5-------6-----6--5-------6-----6-|
G|---4-------4--------4-------4-----|-----7-----7----------7-----7-----|
D|----------------------------------|---7----------------7-------------|
A|----------------------------------|----------------------------------|
E|----------------------------------|----------------------------------|

                       or you can do it this way

e|----------------------------------|-------5-----5----------5-----5---|
B|-7-----8-----8----7-----8-----8---|-5-------6-----6--5-------6-----6-|
G|-----9---9-----9------9---9-----9-|-----7-----7----------7-----7-----|
D|---9-------9--------9-------9-----|---7----------------7-------------|
A|----------------------------------|----------------------------------|
E|----------------------------------|----------------------------------|

Source: https://tabs.ultimate-guitar.com/p/pink_floyd/hey_you_intro_tab.htm