Tablature guitare : Pink Floyd – Comfortably Numb

Comfortably Numb
by Pink Floyd
from The WallBm                         

[Verse]

Bm                       A
Hello, Is there any body in there?
                    G       D/F#  Em        Bm
Just nod if you can hear me,      is there anyone at home?
Bm                         A
Come on, now, I hear your feeling  down,
      G            D/F#   Em            Bm
well, I can ease  your  pain,   get you on your feet again.
Bm                      A               G          D/F#   Em
relax, I need some information, first,  just the basic facts,
         Bm
Can you show me where it hurts


[Chorus]

D                           A
There is no pain you are receding, 
D                                A        G/B
A distant ships smoke, on the horizon,
C                               G
You are only coming through in waves,
C                                               G
Your lips move, but I can't hear what your saying,
     D                       A
When I was a child, I had a fever,
  D                             A       G/B
my hands felt just like, two balloons,
C                                   G
Now I've got that feeling once again,
G                                 C
I can't explain, you would not understand,
                        G
This is not how I am,

A               G/B  C             G                D
I______________________  have become, comfortably numb.


[Solo 1]

e|---14vvvvvv-----12-14>15>14------------------------------------------------|
B|------------------------------15>17vvvvvvvvvv>15--15-14--------------------|
G|---------------------------------------------------------14----------------|
D|-------------------------------------------------------------14\12vvvvvv---|
A|---------------------------------------------------------------------------|
E|---------------------------------------------------------------------------|

e|--14>12--14>(15)>14----------------------------------------------------------|
B|-----------------------15>17---------15--14----------------------------------|
G|---------------------------------------------14------------------/12vvvvvv---|
D|-------------------------------------------------14\12--11--9--7-------------|
A|-----------------------------------------------------------------------------|
E|-----------------------------------------------------------------------------|

e|---------------------------------------------------------------|
B|---------------------------------------------------------------|
G|---11--------------11\9---9\7vvvvv----9>7------7---9---11>12---|
D|----------14--12----------------------------9------------------|
A|---------------------------------------------------------------|
E|---------------------------------------------------------------|

e|---15-14-12---------------------------------------------------|
B|------------15-12---------------------------------------------|
G|------------------12------------------------------------------|
D|---------------------12vvvvvvvv--10\9vvvvvvv---10\9\7vvvvv----|
A|--------------------------------------------------------------|
E|--------------------------------------------------------------|
                            
e|-----------------------------------------------------------|
B|-----------------------------------------------------------|
G|-11>(12)vvvvvvvv--9>(11)===(11)==>9>7----------------------|
D|---------------------------------------7/9\7vvvvvvvvvvv\---|
A|-----------------------------------------------------------|
E|-----------------------------------------------------------|


[Verse]

Bm                      A                         G   D/F#  Em
O.K., just a little pin prick, there'll be no more (scream),
           Bm
But you may feel a little sick.  Can you stand up?
                   A                              G             D/F#  Em
I do believe it's working, good. That'll keep you going through the show,
Bm
C'mon it's time to go


[Chorus]

D                            A
There is no pain you are receding,
D                               A       G/B
A distant ships smoke on the horizon,
C                                G
You are only coming through in waves,
    C                                         G
Your lips move, but I can't hear what your saying,
    D                              A
When I was a child, I caught a fleeting glimpse,
D                        A     G/B
Out of the corner of my eye,
C                              G
I turned to look, but it was gone,
                           C
I can not put my finger on it now,
                            G
The child is grown, the dream is gone,
A               G/B  C          G                 D
and I___________________, have become comfortably numb.


[Solo}

e|---------------------------------------------------------------|
B|---------------------------------------------------------------|
G|--7--9--9>(11)vvvvvv--9>(11)>9>7---7--9--9--7-------7vvvvvvv---|
D|---------------------------------9-------------9--9------------|
A|---------------------------------------------------------------|
E|---------------------------------------------------------------|

e|-------------------------------------------10----------------------------------|
B|--------10------10--12--12>(15)>12>10--12--------------------------------------|
G|---/11------11---------------------------------------7--9--9>(10)>9>7----------|
D|-----------------------------------------------------------------------9vvvvvv-|
A|-------------------------------------------------------------------------------|
E|-------------------------------------------------------------------------------|

e|---------------------------------------------------------------------------|
B|----10>7-------7-----------------------------------------------------------|
G|-----------9-------9---7-------------------------------7-------------------|
D|--------------------------9vvvvvvvvvv--------7---7--9-----9>7---9vvvvvv----|
A|-----------------------------------------/9--------------------------------|
E|---------------------------------------------------------------------------|

e|--9--9>(10)----7-------7---------------------------|
B|-------------------10-----10>(12)vvv----10>7-------|
G|-----------------------------------------------9---|
D|---------------------------------------------------|
A|---------------------------------------------------|
E|---------------------------------------------------|

e|-------7--------------------------------------------------------|
B|--7--7---10>7---------------------------------------------------|
G|--------------9>(11)>9>7---9-7----------------------------------|
D|-------------------------9-----9-7------------------------------|
A|-----------------------------------9-8-7-5---5vvvvvvvvvvvvvv----|
E|-------------------------------------------7--------------------|

e|--------------------------7-------------------------------------------------|
B|------------------------7---10>7--------------------------------------------|
G|--7-7-7vvvvvvv---9>(11)----------9>(11)>9>7---9-7---------------------------|
D|--------------------------------------------9-----9>7-----------------------|
A|------------------------------------------------------9\7-5-7>5---5--7-7/9--|
E|----------------------------------------------------------------7-----------|

e|----------------------------7----------------------------7------------------|
B|--------------------------7---10--------7--------------7---10>7-------------|
G|-------------7---7-9>(11)--------9>(11)---7--9--9>(11)----------9>(11)>9>7--|
D|--7-7-7--9>7---9------------------------------------------------------------|
A|----------------------------------------------------------------------------|
E|----------------------------------------------------------------------------|

e|-----------------------------------------------------------------------------|
B|---------------------------7--------------7-7-7------------------7-7-7-------|
G|----9-7--------------------7--------------7-7-7------------------7-7-7-------|
D|--9-----9-7----------------7--9vvvvvvv----7-7-7--"9"vvvvvvvvvv---7-7-7--9vvv-|
A|------------9-8-7-5---5>0----------------------------------------------------|
E|--------------------7--------------------------------------------------------|

e|---------------------------------------------7------------------------|
B|--7---------------------------------------------10>7--10>(12)====>10--|
G|--7----9>(11)>9>7-----7--9--9>(11)vvvvvvvv----------------------------|
D|-----7-------------9--------------------------------------------------|
A|----------------------------------------------------------------------|
E|----------------------------------------------------------------------|

e|----------7-------------------------------------------------------|
B|--------7---10>7--------------------------------------------------|
G|-9>(11)----------9>(11)>9>7-9>7---7---------------------------7---|
D|--------------------------------9---9>7-9>7---7------------9--7---|
A|--------------------------------------------9---9-8-7-------------|
E|------------------------------------------------------10-7--------|

e|-----------------------------------------------------------------------|
B|----------7-----7>(8)>7--------------------------7-----------------7---|
G|--------7-7-----7>(8)>7-----------------7>9>7----7-----------------7---|
D|--9-7-9---7-----7>(8)>7-7vvvvvv-7>9------------9---9>7-----7-9>7>9-----|
A|--------------------------------------------------------9--------------|
E|-----------------------------------------------------------------------|

e|------------------------------------7-----17-17-17>(19)vvv--17-19-21-21>(22)vv-|
B|--------7---7---7--7------7---7--7--7------------------------------------------|
G|--9>7---7---7---7--7----7-7---7--7--7------------------------------------------|
D|------9-----7-----------------------7------------------------------------------|
A|-------------------------------------------------------------------------------|
E|-------------------------------------------------------------------------------|

e|--21>(22)vvv-21-21>(22)>21--21>(22)-21>(22)-21>(22)>21--19>21>19-19-19\---|
B|--------------------------------------------------------------------------|
G|--------------------------------------------------------------------------|
D|--------------------------------------------------------------------------|
A|--------------------------------------------------------------------------|
E|--------------------------------------------------------------------------|

e|------------------------------------------------------------------------------|
B|--17-17-17--17>(19)>17>15----17-17-17vvvvvv---15--17-17>(18)>17>15vvv---------|
G|--------------------------16-----------------------------------------16-16-16-|
D|------------------------------------------------------------------------------|
A|------------------------------------------------------------------------------|
E|------------------------------------------------------------------------------|

e|----------------------------10---------10----12-12>(13)-10-12-------12--|
B|--------------------10>(12)----10>(12)----10------------------12-12-----|
G|--14-16vvv--------------------------------------------------------------|
D|-----------14-12--------------------------------------------------------|
A|-----------------14-----------------------------------------------------|
E|------------------------------------------------------------------------|

e|-------------------------------------------------------------|
B|-12>(15)>12--12-10---------------------------------------7---|
G|-------------------9>(11)>9>0--9>7---7-9>7---------------7---|
D|-----------------------------------9-------9-7---------------|
A|-----------------------------------------------9-8-7-5-------|
E|-------------------------------------------------------------|

e|-----------------------------------7--7--7--7---7---7---7--7-7--7---7--7--|
B|---7--7--7--7--7-----7---7---7--7--7--7--7--7---7---7---7--7-7--7---7--7--|
G|---7--7--7--7--7-----7---7---7--7-----------------------------------------|
D|-------------------9---9---9----------------------------------------------|
A|--------------------------------------------------------------------------|
E|--------------------------------------------------------------------------|

e|---7-----------------------------------------------|
B|------10-------------------------------------------|
G|----------9>(11)-9--7------------------------------|
D|----------------------9-9-9-7----7-7>9-9>7-9vvvvv--|
A|---------------------------------------------------|
E|---------------------------------------------------|


** NOTE**

When changing from an A to a G/B to a C in the chorus, do it like this;

(Chords used)

     A      G/B   C
e|-----0-------3----0---|
B|-----2-------3----1---|
G|-----2-------0----0---|
D|-----2-------0----2---|
A|-----0-------2----3---|
E|----------------------|

***********************************
| /         Slide up
|"n"       Harmonic
| x        Dead note
| n>(n)    Bend
| n>(n)>n  Bend release
| v        strike note
***********************************

Source 1 : https://tabs.ultimate-guitar.com/p/pink_floyd/comfortably_numb_tab.htm

=Comfortably Numb solo  1  , and 2
vitooch
vits_says_yo@hotmail.com


[Solo 1]

e|-14~~~~~~~--12--14b(15)r(14)---------------------------------------------------|
B|-----------------------------15b(17)~~~~~--15-14---14--------------------------|
G|------------------------------------------------------14-----------------------|
D|---------------------------------------------------------14~~~~~---12~~~~~~~~~-|
A|-------------------------------------------------------------------------------|
E|-------------------------------------------------------------------------------|

e|-x--14b(15)r(14)p12------------------------------------------------------------|
B|--------------------15b(17)~~~--15p14------------------------------------------|
G|--------------------------------------14--------------/12~~~~~----11-----------|
D|-----------------------------------------14/12-11-9-7-----------------14---12--|
A|-------------------------------------------------------------------------------|
E|-------------------------------------------------------------------------------|

e|---------------------------------------------15-14-12-------------------|
B|------------------------------------------------------15-12-------------|
G|-11/9-9---7~~~~~~--9p7---7-9-11---(11)b(12)-----------------12----------|
D|-----------------------9---------------------------------------12~~~~~~-|
A|------------------------------------------------------------------------|
E|------------------------------------------------------------------------|

e|-------------------------------------------------------------|
B|-------------------------------------------------------------|
G|-----------------------------9b(11)~~~--9p7h9----------------|
D|-10/9~~~~~~-10/7~~~~~~~---------------------------7/9/7~~~~~~|
A|-------------------------------------------------------------|
E|-------------------------------------------------------------|


[Solo 2]

e|---------------------------------------------------------------------------------------10-|
B|------------------------------------------------------10----10-10-12-12b(15)~~~--10-12----|
G|/7--9-9b(11)~~~~~~~9b(11)~~~r9p7-9~~~--7---7------/11----11-------------------------------|
D|-----------------------------------------9------------------------------------------------|
A|------------------------------------------------------------------------------------------|
E|------------------------------------------------------------------------------------------|

e|---------------------------------------------------------------------|
B|-----------------------------10p7---7--------------------------------|
G|-7--9-9b(11)r9p7------------------9---9-7------------------7~~-------|
D|-----------------9~~~~~~~~~~--------------9~~~~~----7-7--9-----9p7-9-|
A|-------------------------------------------------/9------------------|
E|---------------------------------------------------------------------|

e|-7h9-9b(10)~~~~-7----7-7~~~~-----------------------------------------------------|
B|------------------10---------10p7---7-----10p7---7-------------------------------|
G|----------------------------------9------------9---9-7---9-7---------------------|
D|-------------------------------------------------------9-----9-7-----------------|
A|-----------------------------------------------------------------9-8-7-5---5~~~~-|
E|-------------------------------------------------------------------------7-------|

e|-----------------------7---------------------------------------------------------|
B|-------------------------10p7-----7----------------------------------------------|
G|-7-7-7--------9b(11)----------9-9---9p7--9-7-------------------------------------|
D|---------------------------------------9-----9p7---------------------------7-7-7-|
A|-------------------------------------------------9-9\7-5-7p5--5---7-----/9-------|
E|------------------------------------------------------------7-------5h7----------|

e|-------------------7------------------------------7------------------------------------|
B|-----------------7---10--------7----------------7---10p7---7---------------------------|
G|----7---7-9b(11)--------9b(11)---7---9---9b(11)----------9---9-7---9-7-----------------|
D|-9p7--9----------------------------------------------------------9-----9-7-------------|
A|---------------------------------------------------------------------------9-8-7/5---5-|
E|-----------------------------------------------------------------------------------7---|

e|----------------------------------------------------------------------7------7-|
B|-7---------------7-------------7-------7--------------------------------10p7---|
G|-7-------------7-7-------------7-------7----9b(11)>>>r9p7---7-9----------------|
D|-7---9---------7-7---9---------7---9-------9--------------9--------------------|
A|-------------------------------------------------------------------------------|
E|-------------------------------------------------------------------------------|

                                                                  (P.M.)
e|-------------------------------------------------------------------------------------|
B|------------10p7---7---------------------------------------------------7-------7-----|
G|-9b(11)----------9---9-7-9p7---7---------------------------7-----------7-----x-7-----|
D|-----------------------------9---9p7-9p7---7-----------9---------(999)-7-----x-7---7-|
A|-----------------------------------------9---9-8-7/5---------------------------------|
E|-----------------------------------------------------7-------------------------------|

e|--------------------------------------------------------------------------------|
B|-x---7-------7---7-----------7---7-----------7---7------7--7--7---x-7---7-7-7-7-|
G|-x---7-------7---7-----------7---7-----------7---7------7--7--7---x-7---7-7-7-7-|
D|---------9-----------9---9-----------9---9-----------9--------------------------|
A|--------------------------------------------------------------------------------|
E|--------------------------------------------------------------------------------|

e|-----------------19---21-21b(22)---21pb(22)---21---21pb(22)r21--21pb(22)-21b(22)r21-19h20p19-|
B|-17-17b(19)----------------------------------------------------------------------------------|
G|---------------------------------------------------------------------------------------------|
D|---------------------------------------------------------------------------------------------|
A|---------------------------------------------------------------------------------------------|
E|---------------------------------------------------------------------------------------------|

e|-----------------------------------------------------------------|
B|-/17-17-17b(19)---17b(19)---17-15-17-----15--17-17b(19)r17p15----|
G|--------------------------------------------------------------16-|
D|-----------------------------------------------------------------|
A|-----------------------------------------------------------------|
E|-----------------------------------------------------------------|

e|----------------------|
B|-------------------12-|
G|-/14-16---------------|
D|--------14---12-------|
A|----------------14----|
E|----------------------|


***********************************
| /   Slide up
| \   Slide down
| h   Hummer-on
| p   Pull-off
| ~   Vibrato
| x   Dead note
| b   Bend
| r   Release
| PM  Palm mute
| (n) Ghost note
***********************************

Source 2 : https://tabs.ultimate-guitar.com/p/pink_floyd/comfortably_numb_solo_ver6_tab.htm