Tablature guitare : Pink Floyd – Another Brick In The Wall Part 2

Decently easy solo, takes some time to memorize.

Another Brick in the Wall pt. 2 Solo
Pink Floyd
The Wall

Blues Tones (high lows, low highs) w/little distortion, pick close to start of neck
(good with neck pickups)


e|------------------------------------10---------------------------------------|
B|-13p10----10----13---13b(15)>>>>>>--10-10---10-----13b(15)r13--13b(17)>>>r13-|
G|-------12----12---------------------10-10---10-------------------------------|
D|-----------------------------------------------------------------------------|
A|-----------------------------------------------------------------------------|
E|-----------------------------------------------------------------------------|

e|-----------------------------------------------------12-|
B|-13p10-----------------------------------------------12-|
G|-------12---12b(14)>>>r12-----10\9----9---------12------|
D|-----------------------------------12---10-12-----------|
A|--------------------------------------------------------|
E|--------------------------------------------------------|

e|------------------------------------------------------|
B|-10---------10---10--------10---10--------10---12-10^-|
G|-10---------10---10--------10---10--------10---12-10^-|
D|----12-12-----------12-------------12-----------------|
A|------------------------------------------------------|
E|------------------------------------------------------|

e|-------13b(15)>>>>>>>r13-----13---13-----13b(15)r13b(17)>>(18)<<(15)-|
B|-----x---------------------------------------------------------------|
G|---x-----------------------------------------------------------------|
D|-x-------------------------------------------------------------------|
A|---------------------------------------------------------------------|
E|---------------------------------------------------------------------|

e|--------------10-------------------------------------------------------------|
B|-----------10----13p10-------------------------------------------------------|
G|-12b(14)---------------12---12p10---12p10------10----------------------------|
D|------------------------------------------12------12-----12p10---------------|
A|---------------------------------------------------------------12p10-12\10-8-|
E|-----------------------------------------------------------------------------|

e|--------------------------------------------------------------------------------|
B|-------------------------------------------------------5h6p5--------------------|
G|-----------------------------------------------5---7---------7---7p5------5b(6)-|
D|------------------------------------------/7-------------------------7----------|
A|-10p8-----------------8---------------------------------------------------------|
E|------10p8-10---10-10---10p8---10-----------------------------------------------|

e|----------------------------------------------------------------------------|
B|---------6b(8)>>>>---------13pb(15)>>>>>r(13)-13b(15)>>>(17)>>>>>r13-13-----|
G|-7-7-7p5--------------------------------------------------------------------|
D|----------------------------------------------------------------------------|
A|----------------------------------------------------------------------------|
E|----------------------------------------------------------------------------|

e|-----15b(17)>>>>>>>---13p10-----------13---12---15b(17)r15b(17)r15b(17)r15b(17)>>>>>**-|
B|---x----------------x-------------/15--------------------------------------------------|
G|-x-------------------------------------------------------------------------------------|
D|---------------------------------------------------------------------------------------|
A|---------------------------------------------------------------------------------------|
E|---------------------------------------------------------------------------------------|
**Execute this series of bends and returns at 16th-note pace

e|-15pb(17)>>r(15)---15-------18b(20)-----18pb(20)--------20b(22)-|
B|----------------------------------------------------------------|
G|----------------------------------------------------------------|
D|----------------------------------------------------------------|
A|----------------------------------------------------------------|
E|----------------------------------------------------------------|

                                                                 (P.M.>)
e|-20p17---------20p17---------------------------------------------------|
B|-----------------------------------------------------------------------|
G|--------------------------------10-----10---10^------------x---(10-10)-|
D|------------------------------------------------12---------x---(10-10)-|
A|-----------------------------------------------------------------------|
E|-----------------------------------------------------------------------|

e|----------------------------------------------------|
B|-------------------------12-------12-----\10--------|
G|---------12-----x--------12-------12-----\10-----p9-|
D|-12/14---14-----x-12--------------------------------|
A|----------------------------------------------------|
E|----------------------------------------------------|

e|-------------------------------------------------------|
B|------10-x-x----------x-------x-x----------------------|
G|-x----10-x-x----------x-------x-x----------------------|
D|-x-12--------12----------------------------------------|
A|----------------------------------10---8h10-10-x-8-----|
E|---------------------------------------------------10--|


**************************************************************************

p = pulloff
h = hammer on
b = bend
r = return
> = sustain bend (some sustains are slow releases)
< = return to lower pitch bend
x = fret hand mute
\ = slide down
/ = slide up
pb = prebend/ghost bend
P.M. = palm hand mute

**************************************************************************

Source : https://tabs.ultimate-guitar.com/p/pink_floyd/another_brick_in_the_wall_part_2_solo_tab.htm