Tablature guitare : Papa Roach – Scars

C# or Db tuning, whichever you prefer to call it

C# G# C# F# A# D#
OR
Db Ab Db Gb Bb Ee

I played this along with the CD and it's PERFECT! 

For beginners, if you can't reach as far as necessary for the verse notes, you can
harmonize them with the next string up, (EXAMPLE: G7 moved up to B3 is the same note
but closer to your area. Just helping those who can't reach as far as necessary
because that really use to bumb me out when I first started playing

  -=  Intro  =-
C#|----------------------------------------|
F#|----------------------------------------|
B |----------------7-----------------------|
E |-10------5------7------3----------------|
G#|-10------5------5------3----------------|
C#|-10------5-------------3----------------|

  "I tear my" - "Care too much"
C#|----------------------------------------|
F#|----------------------------------------|
B |---------------7------------------------|
E |-2------5------7------3-----------------|
G#|-3------5------5------3-----------------|
C#|-2--------------------3-----------------|

"And my scars" - "Just to Feel"

  -=  Verse One =-
C#|----------------------------------------------------|
F#|----------------------------------------------------|
B |------------------5-4-----------7-5----------9-7----| PLAY
E |--7-10-9--------2-----5------3------7------5-----9--| TWICE
G#|--7------9------2------------3-------------5--------|
C#|--7-------------2------------3-------------5--------|

  -= CHORUS =-
C#|-----------------------------------|
F#|-----------------------------------|
B |---------------7-------------------|
E |--10-----5-----7-X8--3-----5-------|
G#|--10-X8--5-X8--5-----3-X4--5-X4----|
C#|--10-----5-----------3-----5-------|

C#|-----------------------------------|
F#|---------------7-------------------|
B |---------------7-X8----------------|
E |---2-----5-----5-----3-----5-------|
G#|---3-X8--5-X8--------3-X4--5-X4----|
C#|---2-----------------3-----5-------|

  -=  Verse TWO =-
C#|----------------------------------------------------|
F#|----------------------------------------------------|
B |------------------5-4-----------7-5----------9-7----| PLAY
E |--7-10-9--------2-----5------3------7------5-----9--| TWICE
G#|--7------9------2------------3-------------5--------|
C#|--7-------------2------------3-------------5--------|

  -= CHORUS =-
C#|-----------------------------------|
F#|-----------------------------------|
B |---------------7-------------------|
E |--10-----5-----7-X8--3-----5-------|
G#|--10-X8--5-X8--5-----3-X4--5-X4----|
C#|--10-----5-----------3-----5-------|

C#|-----------------------------------|
F#|---------------7-------------------|
B |---------------7-X8----------------|
E |---2-----5-----5-----3-----5-------|
G#|---3-X8--5-X8--------3-X4--5-X4----|
C#|---2-----------------3-----5-------| 

  -=  Verse Three =-
C#|----------------------------------------------------|
F#|----------------------------------------------------|
B |------------------5-4-----------7-5----------9-7----| PLAY
E |--7-10-9--------2-----5------3------7------5-----9--| TWICE
G#|--7------9------2------------3-------------5--------|
C#|--7-------------2------------3-------------5--------|

  Bridge 
C#|--------------------------------------------|
F#|--------------------------------------------|
B |----------------7---------------------------|
E |-10------5------7------3-----5-5------------|
G#|-10------5------5------3-----5-5------------|
C#|-10------5-------------3-----5-5------------|

C#|--------------------------------------------|
F#|--------------------------------------------|
B |----------------7---------------------------|
E |-10------5------7-X2---3-----5-5------------|
G#|-10-X2---5-X2---5------3-X2--5-5------------|
C#|-10------5-------------3-----5-5------------|

C#|--------------------------------------------|
F#|--------------------------------------------|
B |--------------------------------------------|
E |---------------------------(7)----3---------|
G#|-------------------(5)-X11-(5)-X4-3---------|
C#|-(10)-X11--(5)-X11----------------3---------|

  -= CHORUS (PLAY TWICE)=-
C#|-----------------------------------|
F#|-----------------------------------|
B |---------------7-------------------|
E |--10-----5-----7-X8--3-----5-------|
G#|--10-X8--5-X8--5-----3-X4--5-X4----|
C#|--10-----5-----------3-----5-------|

C#|-----------------------------------|
F#|---------------7-------------------|
B |---------------7-X8----------------|
E |---2-----5-----5-----3-----5-------|
G#|---3-X8--5-X8--------3-X4--5-X4----|
C#|---2-----------------3-----5-------|


************************************

| X     Repeats
|(N)   Palm Mute

************************************

https://tabs.ultimate-guitar.com/p/papa_roach/scars_ver4_tab.htm