Tablature guitare : Papa Roach – Lifeline

     Papa Roach - Lifeline
  Tabbed by: Edm RockJunkie

Pleas rate tab if you like... thanks!!

  D:  G:  Em: A:     Bm:                               Legends:
  x   x   x   x       x
  3   3   0   x       3                                /  slide up
  2   0   0   2       4                                \  slide down
  0   0   2   2       4                                h  hammer-on
  0   2   2   0       2                                p  pull-off
  -   3   0   -       -                                ~  vibrato
                                                       +  harmonic
                                                       x  mute note
                                                       <  fade in
                                                       >  fade out

[Intro] (Riff A)
E|----------------------------------------------------------|
B|----------------------------------------------------------|
G|--7p0-7p0-7p0--6p0-6p0-6p0--4p0-4p0-4p0--6p0-6p0-6p0------|  Repeat 1X
D|-----0---0--------0---0--------0---0--------0---0---------|
A|----------------------------------------------------------|   ( < D )
E|----------------------------------------------------------|

(Fig. A)
    D         G
E|---------------------------------------------------------------------|
B|---------------------------------------------------------------------|
G|- Repeat ---7p0-7p0-7p0--6p0-6p0-6p0--11p0-11p0-11p0--6p0-6p0-6p0----|
D|- Riff A ------0---0--------0---0---------0----0---------0---0-------|
A|---------------------------------------------------------------------|
E|---------------------------------------------------------------------|

   Em                        A
E|-----------------------------------------------------------|
B|-----------------------------------------------------------|
G|--7p0-7p0-7p0--6p0-6p0-6p0--12p0-12p0-12p0--6p0-6p0-6p0----|
D|-----0---0--------0---0---------0----0---------0---0-------|
A|-----------------------------------------------------------|
E|-----------------------------------------------------------|

   D                             (Fill 1)
E|---------------------------|  |-------------------------|
B|---------------------------|  |-------------------------|
G|--7p0-7p0-7p0--6p0-6p0-6p0-|  |-4p0-4p0-4p0--2~~~~~~~---|
D|-----0---0--------0---0----|  |----0---0----------------|
A|---------------------------|  |-------------------------|
E|---------------------------|  |-------------------------|

[Verse 1]
   D                                G
E|-x----------xx-x----------x3-2-----x----------xx-x----------xx--x-----|
B|-3----------3x-3----------33-3-----3----------3x-3----------33--3-----|
G|-2----------2x-2----------22-2-----0----------0x-0----------00--0-----|
D|-0----------0x-0----------00-0-----0----------0x-0----------00--0-----|
A|-0-------------0----------0--------2-------------2----------2---2-----|
E|-----------------------------------3-------------3----------3---------|

  Em                A               D
E|-x----------------x---------------x-----------------------------------|
B|-0----------------x---------------3-----------------------------------|
G|-0----------------2---------------2----------/7-6-4-2-----------------|
D|-2----------------2---------------0-----------------------------------|
A|-2----------------0---------------0----------/5-4-2-0-----------------|
E|-0--------------------------------------------------------------------|

[Verse 2]
   D                                  G
E|-x-xx-x---xx-xx---x-xx-x---xx-xx----x-xx-x---xx-xx---x-xx-x---xx-xx---|
B|-3-3x-3---3x-33---3-3x-3---3x-33----3-3x-3---3x-33---3-3x-3---3x-33---|
G|-2-2x-2---2x-22---2-2x-2---2x-22----0-0x-0---0x-00---0-0x-0---0x-00---|
D|-0-0x-0---0x-00---0-0x-0---0x-00----0-0x-0---0x-00---0-0x-0---0x-00---|
A|-0----0------0----0----0------0-----2----2------22---2----2------22---|
E|------------------------------------3----3------3----3----3------3----|

   Em               A                D
E|-x-xx-x---xx-xx---x-xx-x---xx-xx---x----------------------------------|
B|-0-0x-0---0x-00---x-xx-x---xx-xx---3----------------------------------|
G|-0-0x-0---0x-00---2-2x-2---2x-22---2----------/7-9-11-14--------------|
D|-2-2x-2---2x-22---2-2x-2---2x-22---0----------------------------------|
A|-2----2------2----0----0------0----0----------/5-7--9-12--------------|
E|-0----0------0--------------------------------------------------------|

[Chorus]
               (Fill 2)
E|-----------------------------|
B|-----------------------------|
G|- Repeat -----/14-12-11-9----|
D|- Fig. A --------------------|
A|--------------/12-10--9-7----|
E|-----------------------------|

[Verse 3]
   D                                  G
E|-x-xx-x---xx-xx---x-xx-x---xx-xx----x-xx-x---xx-xx---x-xx-x---xx-xx---|
B|-3-3x-3---3x-33---3-3x-3---3x-33----3-3x-3---3x-33---3-3x-3---3x-33---|
G|-2-2x-2---2x-22---2-2x-2---2x-22----0-0x-0---0x-00---0-0x-0---0x-00---|
D|-0-0x-0---0x-00---0-0x-0---0x-00----0-0x-0---0x-00---0-0x-0---0x-00---|
A|-0----0------0----0----0------0-----2----2------22---2----2------22---|
E|------------------------------------3----3------3----3----3------3----|

   Em               A                D
E|-x-xx-x---xx-xx---x----------------x----------------------------------|
B|-0-0x-0---0x-00---x----------------3----------------------------------|
G|-0-0x-0---0x-00---2---- pause -----2----------/7-9-11-14--------------|
D|-2-2x-2---2x-22---2----------------0----------------------------------|
A|-2----2------2----0----------------0----------/5-7--9-12--------------|
E|-0----0------0--------------------------------------------------------|

[Chorus]
E|-----------------------------| |-----------------------------|
B|-----------------------------| |-----------------------------|
G|- Repeat ---- W/Fill 1 ------| |- Repeat ---- W/Fill 1 ------|
D|- Fig. A --------------------| |- Fig. A --------------------|
A|-----------------------------| |-----------------------------|
E|-----------------------------| |-----------------------------|

[Bridge]
E|-------------x---------------------------------x-----------------------|
B|-------------3---------------------------------3-----------------------|
G|-4-/7--9-11--0---------------------4-/7--9-11--0-----------------------|
D|-------------0----/5p4-2-2h4-0-------------- --0----/5p4-2-2h4/7-------|
A|-2-/5--7--9--2---------------------2-/5--7--9--2-----------------------|
E|-------------3---------------------------------3-----------------------|

[Outro Choruses]
E|-----------------------------------------------------------------------|
B|-----------------------------------------------------------------------|
G|- Repeat ----4p0-4p0-4p0-/7--------------------------------------------|
D|- Fig. A -------0---0--------------------------------------------------|
A|-------------------------/5--------------------------------------------|
E|-----------------------------------------------------------------------|

   G                                                     Em
E|------------------------------------------------------------------------|
B|------------------------------------------------------------------------|
G|-7p0-7p0-7p0--6p0-6p0-6p0--11p0-11p0-11p0--6p0-6p0-6p0--7p0-7p0-7p0--6p0|
D|----0---0--------0---0---------0----0---------0---0--------0---0--------|
A|------------------------------------------------------------------------|
E|------------------------------------------------------------------------|

m           A                            D
E|------------------------------------------------------------------------|
B|------------------------------------------------------------------------|
G|-6p0-6p0--12p0-12p0-12p0--6p0-6p0-6p0--7p0-7p0-7p0--6p0-6p0-6p0--4p0-4p0|
D|0---0---------0----0---------0---0--------0---0--------0---0--------0---|
A|------------------------------------------------------------------------|
E|------------------------------------------------------------------------|

E|---------------------------|
B|---------------------------|
G|-4p0--2---- pause ---------|
D|0--------------------------|
A|---------------------------|
E|---------------------------|

    D         Bm
E|---------------------------------------------------------------------|
B|---------------------------------------------------------------------|
G|- Repeat ---7p0-7p0-7p0--6p0-6p0-6p0--11p0-11p0-11p0--6p0-6p0-6p0----|
D|- Riff A ------0---0--------0---0---------0----0---------0---0-------|
A|---------------------------------------------------------------------|
E|---------------------------------------------------------------------|

   Em                        G
E|-----------------------------------------------------------|
B|-----------------------------------------------------------|
G|--7p0-7p0-7p0--6p0-6p0-6p0--12p0-12p0-12p0--6p0-6p0-6p0----|
D|-----0---0--------0---0---------0----0---------0---0-------|
A|-----------------------------------------------------------|
E|-----------------------------------------------------------|

   D
E|-----------------------------------------------------|
B|-----------------------------------------------------|
G|--7p0-7p0-7p0--6p0-6p0-6p0--4p0-4p0-4p0--2~~~~~~~----|
D|-----0---0--------0---0--------0---0-----------------|
A|-----------------------------------------------------|
E|-----------------------------------------------------|

                                   D
E|---------------------------------x--------------------|
B|---------------------------------3--------------------|
G|- Repeat ---- W/Fill 1 --(2)p0---2-- toggle switch ---|
D|- Fig. A ------------------------0--------------------|
A|---------------------------------0--------------------|
E|------------------------------------------------------|

https://tabs.ultimate-guitar.com/p/papa_roach/lifeline_ver2_tab.htm