Tablature guitare : Papa Roach – Hollywood Whore

Tuning: Drop D 

[Intro]
E|---------3-----------------------------------------------------3------|
B|----4-------------4----6-------4-----6---------6--4-------------------|
G|-5-----5-------4----4-------3-----3---------5---------------4---------|
D|-----------------------------------------6---------------5------------|
A|----------------------------------------------------------------------|
D|----------------------------------------------------------------------|

E|-------------------------------------|-------------------------------------|
B|-------------------------------------|-------------------------------------|
G|-5-5---5h7-5h7-8-7-5h7-5h7-5h7-8-7-5-|-4-4---4h5-4h5-8-5-4h5-4h5-4h5-8-5-4-|
D|-5-5---------------------------------|-4-4---------------------------------|
A|-3-3---------------------------------|-2-2---------------------------------|
D|-------------------------------------|-------------------------------------|

E|-------------------------------------|-------------------------------------|
B|-------------------------------------|-------------------------------------|
G|-5-5---5h7-5h7-8-7-5h7-5h7-5h7-8-7-5-|-4-4---4h5-4h5-8-5-4h5-4h5-4h5-8-5-4-|
D|-5-5---------------------------------|-4-4---------------------------------|
A|-3-3---------------------------------|-2-2---------------------------------|
D|-------------------------------------|-------------------------------------|

[Verse]
E|--------------------|-------------------|
B|--------------------|-------------------|
G|-5-5------x-x--4-4--|---5-5--------4-4--|
D|-5-5------x-x--4-4--|---5-5--------4-4--|
A|-3-3------x-x--2-2--|---2-2--------2-2--|
D|--------------------|-------------------|   

E|-------------------|-------------------|
B|-------------------|-------------------|
G|---5-5--------4-4--|---5-5--------4-4--|
D|---5-5--------4-4--|---5-5--------4-4--|
A|---3-3--------2-2--|---2-2--------2-2--|
D|-------------------|-------------------|  

[Pre-Chorus]
E|---------------|---------------|-----------------------------|
B|--------8b^----|---------------|-----------------------------|
G|---------------|--------10bv---|-----------------------------|
D|-6-6-----------|-6-6-----------|-5-5-------------------------|
A|-6-6-----------|-6-6-----------|-5-5-5-5-5-5-6-6-6-6-8-8-8-8-|
D|-6-6-----------|-6-6-----------|-5-5-------------------------|

[Chorus]
E|----------------------------------------------------------|
B|----------------------------------------------------------|
G|-555555555555---------------------------------------------|
D|-555555555555--555555555555--6666666666666--333333-555555-|
A|-333333333333--555555555555--6666666666666--333333-555555-|
D|---------------555555555555--6666666666666--333333-555555-|

E|----------------------------------------------------------|
B|----------------------------------------------------------|
G|-555555555555---------------------------------------------|
D|-555555555555--555555555555--6666666666666--333333-555555-|
A|-333333333333--555555555555--6666666666666--333333-555555-|
D|---------------555555555555--6666666666666--333333-555555-|
 
[Instrumental]
E|-------------------------------------|-------------------------------------|
B|-------------------------------------|-------------------------------------|
G|-5-5---5-7-5-7-8-7-5-7-5-7-5-7-8-7-5-|-4-4---4-5-4-5-8-5-4-5-4-5-4-5-8-5-4-|
D|-5-5---------------------------------|-4-4---------------------------------|
A|-3-3---------------------------------|-2-2---------------------------------|
D|-------------------------------------|-------------------------------------|

E|-------------------------------------|-------------------------------------|
B|-------------------------------------|-------------------------------------|
G|-5-5---5-7-5-7-8-7-5-7-5-7-5-7-8-7-5-|-4-4---4-5-4-5-8-5-4-5-4-5-4-5-8-5-4-|
D|-5-5---------------------------------|-4-4---------------------------------|
A|-3-3---------------------------------|-2-2---------------------------------|
D|-------------------------------------|-------------------------------------|

[Verse]
E|--------------------|-------------------|
B|--------------------|-------------------|
G|-5-5------x-x--4-4--|---5-5--------4-4--|
D|-5-5------x-x--4-4--|---5-5--------4-4--|
A|-3-3------x-x--2-2--|---2-2--------2-2--|
D|--------------------|-------------------|   


E|-------------------|-------------------------|
B|-------------------|-------------------------|
G|---5-5--------4-4--|---5-5--------4-4--------|
D|---5-5--------4-4--|---5-5--------4-4--------|
A|---3-3--------2-2--|---2-2--------2-2--------|
D|-------------------|--------------------1/15\|  

[Pre-Chorus]
E|---------------|---------------|-----------------------------|
B|--------8b^----|---------------|-----------------------------|
G|---------------|--------10bv---|-----------------------------|
D|-6-6-----------|-6-6-----------|-5-5-------------------------|
A|-6-6-----------|-6-6-----------|-5-5-5-5-5-5-6-6-6-6-8-8-8-8-|
D|-6-6-----------|-6-6-----------|-5-5-------------------------|

[Chorus]
E|----------------------------------------------------------|
B|----------------------------------------------------------|
G|-555555555555---------------------------------------------|
D|-555555555555--555555555555--6666666666666--333333-555555-|
A|-333333333333--555555555555--6666666666666--333333-555555-|
D|---------------555555555555--6666666666666--333333-555555-|

E|----------------------------------------------------------|
B|----------------------------------------------------------|
G|-555555555555---------------------------------------------|
D|-555555555555--555555555555--6666666666666--333333-555555-|
A|-333333333333--555555555555--6666666666666--333333-555555-|
D|---------------555555555555--6666666666666--333333-555555-|
 
[Interlude/Bridge]
E|--------------------|--------------------|
B|--------------------|--------------------|
G|-88888888-----------|-88888888-----------|
D|-88888888--55555555-|-88888888--55555555-|
A|-66666666--55555555-|-66666666--55555555-|
D|-----------55555555-|-----------55555555-|

E|--------------------|--------------------|
B|--------------------|--------------------|
G|----------5555/3333-|----------5555/3333-|
D|-66666666-5555/3333-|-66666666-5555/3333-|
A|-66666666-3333/1111-|-66666666-3333/1111-|
D|-66666666-----------|-66666666-----------|

E|--------------------|
B|--------------------|
G|--------------------|
D|-66666666-5555-3333-|
A|-66666666-5555-3333-|
D|-66666666-5555-3333-|
 
E|---------3-----------------------------------------------------3------|
B|----4-------------4----6-------4-----6---------6--4-------------------|
G|-5-----5-------4----4-------3-----3---------5---------------4---------|
D|-----------------------------------------6---------------5------------|
A|----------------------------------------------------------------------|
D|----------------------------------------------------------------------|

E|---------3-----------------------------------------------------3------|
B|----4-------------4----6-------4-----6---------6--4-------------------|
G|-5-----5-------4----4-------3-----3---------5---------------4---------|
D|-----------------------------------------6---------------5------------|
A|----------------------------------------------------------------------|
D|----------------------------------------------------------------------|

E|---------3-----3------------------------------------------------------|
B|----4------4-----4--------4---6--4---6--4------4---6--4---6--4--------|
G|-5-----5-----5----------4---4------4---------3---3------3-------------|
D|----------------------------------------------------------------------|
A|----------------------------------------------------------------------|
D|----------------------------------------------------------------------|

[Chorus]
E|----------------------------------------------------------|
B|----------------------------------------------------------|
G|-555555555555---------------------------------------------|
D|-555555555555--555555555555--6666666666666--333333-555555-|
A|-333333333333--555555555555--6666666666666--333333-555555-|
D|---------------555555555555--6666666666666--333333-555555-|

E|----------------------------------------------------------|
B|----------------------------------------------------------|
G|-555555555555---------------------------------------------|
D|-555555555555--555555555555--6666666666666--333333-555555-|
A|-333333333333--555555555555--6666666666666--333333-555555-|
D|---------------555555555555--6666666666666--333333-555555-|

[Outro]
E|--------------------------------------------------------------------|
B|--------------------------------------------------------------------|
G|-5-5-5-5-5-5-5-5----------------------------------------------------|
D|-5-5-5-5-5-5-5-5--5-5-5-5-5-5-5-5--6-6-6-6-6-6-6-6--3-3-3-3-5-5-5-5-|
A|-3-3-3-3-3-3-3-3--5-5-5-5-5-5-5-5--6-6-6-6-6-6-6-6--3-3-3-3-5-5-5-5-|
D|------------------5-5-5-5-5-5-5-5--6-6-6-6-6-6-6-6--3-3-3-3-5-5-5-5-|

E|---------------------------------------------------------------|
B|---------------------------------------------------------------|
G|-5-5-5-5-5-5-5-5-----------------------------------------------|
D|-5-5-5-5-5-5-5-5--5-5-5-5-5-5-5-5--6-6-6-6-6-6-6-6--3--3--5--5-|
A|-3-3-3-3-3-3-3-3--5-5-5-5-5-5-5-5--6-6-6-6-6-6-6-6--3--3--5--5-|
D|------------------5-5-5-5-5-5-5-5--6-6-6-6-6-6-6-6--3--3--5--5-|

E|-------------------------------------|-------------------------------------|
B|-------------------------------------|-------------------------------------|
G|-5-5---5h7-5h7-8-7-5h7-5h7-5h7-8-7-5-|-4-4---4h5-4h5-8-5-4h5-4h5-4h5-8-5-4-|
D|-5-5---------------------------------|-4-4---------------------------------|
A|-3-3---------------------------------|-2-2---------------------------------|
D|-------------------------------------|-------------------------------------|

E|-------------------------------------|------------------------------------------|
B|-------------------------------------|------------------------------------------|
G|-5-5---5h7-5h7-8-7-5h7-5h7-5h7-8-7-5-|-4-4---4h5-4h5-8-5-4h5-4h5-4h5-8-5-4--5-5-|
D|-5-5---------------------------------|-4-4----------------------------------5-5-|
A|-3-3---------------------------------|-2-2----------------------------------3-3-|
D|-------------------------------------|------------------------------------------|



************************************
 
b^ - bend up
bv - bend down
\ - slide down
/ - slide up
h - hammer on
p - pull off

************************************

Commentaires :

the intro lick that he plays can also be played this way....i find it alil easier.
[------------------------------][------------------------------]
[--------------4-----------4---][--------------4-----------4---]
[-5-5--5h7-5h7---7-5h7-5h7---7-][-4-4--4h5-4h5---5-4h5-4h5---5-]
[-5-5--------------------------][-4-4--------------------------]
[-3-3--------------------------][-2-2--------------------------]
[------------------------------][------------------------------] 

ood tab, i just tabbed it, and i nearly got the same tab as you!
I just think the last two sequences of the intro are a bit off, thats my version:

|---------3----------------------------------------------------------
|----4-------------4----6-------4-----6---------6----------------8---
|-5-----5-------4----4-------3-----3---------8-----8----------8------
|-----------------------------------------6---------------5----------
|--------------------------------------------------------------------
|--------------------------------------------------------------------

and in the prechorus, i think the first bend is on the a string on fret 10, and the second one is on fret 8 also on the a string. Except for that the tab is perfect! 5Stars

Good Job and Song but I think the intro should go like this but its just my opinion.

|----------------------------------------------------------------
|---------8-------------6-----------6-------6-------8------------
|-----8-------------8-----------8---------8---8---7--------------
|--10--10---------9---9-------8---8-----6-------5----------------
|----------------------------------------------------------------
|----------------------------------------------------------------

https://tabs.ultimate-guitar.com/p/papa_roach/hollywood_whore_ver2_tab.htm