Tablature guitare : Papa Roach – Getting Away With Murder

Author
Tuning
D A D G B E
Papa Roach - Getting Away With Murder
Tabbed by: Jeff "Wasted Spaceman" Huss
Email: wasted_spaceman@hotmail.com
Tuning: Down one WHOLE step, and dropped D (CGCFAD)

This really isn't a difficult song to play.  The picking on the
first guitar part (during the parts where he plays an octave interval)
was really hard to hear, though.  At some points it sounds like he's
just sustaining the notes, at others it sounds like 16th notes,
and at even other times it sounds like flat out tremolo picking.

******************************************************************
Also, during the chorus, if I listen really closely, I think
I can hear some faint notes being played on the high-E string...
I included them in the tab as ghost (optional) notes.  If someone
else can hear them too, let me know...

The *only* reason I included them is because someone else 
******************************************************************

Another thing:  at ~2:10 into the song, at the end of the bridge,
he does kind of a Steve Vai style dive (like a horse whinnying).
That's what I mean by "horsie dive."

Included lyrics for the hell of it.  They're kinda lined up
with the guitar part...sorta.  Enjoy.

Oh, and this song was transcribed completely by ear yadda yadda.
I don't think there's even a tab book for this album out there yet.


[Intro] (Bass Guitar)
                            x3
----------------------------|----------------------------|
o--------------------------o|----------------------------|
o--------------------------o|----------------------------|
---0--0-12--0--0--0-12--0---|---0--0-12--0-0-------------|

 (0:09)
 Guitar 1
E|--10------------------------|---9----------12------------|--13---------------|--12-----------5------------|
B|o--x----(strum as-----------|---x-----------x------------|---x---------------|---x-----------x-----------o|
G|---7-----16th notes)--------|---6-----------9------------|--10---------------|---9-----------2------------|
D|----------------------------|----------------------------|-------------------|----------------------------|
A|o---------------------------|----------------------------|-------------------|---------------------------o|
D|----------------------------|----------------------------|-------------------|----------------------------|

 Guitar 2
E|--------------------------|------------------------|-------------------------|----------------------------|
B|o-------------------------|------------------------|-------------------------|---------------------------o|
G|--------------------------|------------------------|-------------------------|----------------------------|
D|---0--0--0--0--0--0--0--3-|-7--7--7--7--7--7-10--7-|-8--8--8--8--8--8--8-10--|---7--7--7--7--7--7--3--5---|
A|o--0--0--0--0--0--0--0--3-|-7--7--7--7--7--7-10--7-|-8--8--8--8--8--8--8-10--|---7--7--7--7--7--7--3--5--o|
D|---0--0--0--0--0--0--0--3-|-7--7--7--7--7--7-10--7-|-8--8--8--8--8--8--8-10--|---7--7--7--7--7--7--3--5---|
    Light P.M........            Light P.M.......             Light P.M........            Light P.M.......

0:27 [VERSE]
 Guitar 1
E|----------------------------|----------------------------|------------------|----------------------------|
B|----------------------------|----------------------------|------------------|----------------------------|
G|----------------------------|----------------------------|------------------|----------------------------|
D|----------------------------|----------------------------|------------------|------------------x--3--5---|
A|----------------------------|----------------------------|------------------|------------------x--3--5---|
D|----------------------------|----------------------------|------------------|------------------x--3--5---|

 Guitar 2
E|--------------------------|--------------------------|--------------------------|--------------------------|
B|--------------------------|--------------------------|--------------------------|--------------------------|
G|--------------------------|--------------------------|--------------------------|--------------------------|
D|---0--0--0--0--0--0--0--3-|---7--7--7--7--7--7-10--7-|---8--8--8--8--8--8--8-10-|---7--7--7--7--7--7--3--5-|
A|---0--0--0--0--0--0--0--3-|---7--7--7--7--7--7-10--7-|---8--8--8--8--8--8--8-10-|---7--7--7--7--7--7--3--5-|
D|---0--0--0--0--0--0--0--3-|---7--7--7--7--7--7-10--7-|---8--8--8--8--8--8--8-10-|---7--7--7--7--7--7--3--5-|
  Light P.M...........................................    Light P.M..........................................
Somewhere beyond happiness and sadness      I need to     calculate      what    creates my own madness

 (0:37)
 Guitar 1
E|----------------------------|----------------------------|--------------------|----------------------------|
B|----------------------------|----------------------------|--------------------|----------------------------|
G|----------------------------|----------------------------|--------------------|----------------------------|
D|---0--0--0------------------|----------------------------|--------------------|---------------x--x--3--5---|
A|---0--0--0------------------|----------------------------|--------------------|---------------x--x--3--5---|
D|---0--0--0------------------|----------------------------|--------------------|---------------x--x--3--5---|

 Guitar 2
E|--------------------------|------------------------|--------------------------|----------------------------|
B|--------------------------|------------------------|--------------------------|----------------------------|
G|--------------------------|------------------------|--------------------------|----------------------------|
D|---0--0--0--0--0--0--0--3-|-7--7--7--7--7--7-10--7-|-8--8--8--8--8--8--8-10---|---7--7--7--7--7--7--3--5---|
A|---0--0--0--0--0--0--0--3-|-7--7--7--7--7--7-10--7-|-8--8--8--8--8--8--8-10---|---7--7--7--7--7--7--3--5---|
D|---0--0--0--0--0--0--0--3-|-7--7--7--7--7--7-10--7-|-8--8--8--8--8--8--8-10---|---7--7--7--7--7--7--3--5---|
Light P.M...........................................      Light P.M...........................................
 And I'm addicted to your punishment         and you're the master      and I am waiting for disaster

 (0:46 CHORUS)
 Guitar 1
E|--(8)---------------(8)-----|-(10)--------(13)--(10)(13)-|-(15)----------------|-(10)---------------------|
B|-------------(10)-----------|----------------------------|---------------------|--------------------------|
G|----------------------------|----------------------------|---------------------|--------------------------|
D|---0------------------------|---8------------------------|---5-----------------|---1----------------------|
A|---0------------------------|---8------------------------|---5-----------------|---1----------------------|
D|---0------------------------|---8------------------------|---5-----------------|---1----------------------|

 Guitar 2
E|----------------------------|----------------------------|----------------------------|-------------------|
B|----------------------------|----------------------------|----------------------------|-------------------|
G|----------------------------|----------------------------|----------------------------|-------------------|
D|---0------------------------|---8------------------------|---5------------------------|---1---------------|
A|---0------------------------|---8------------------------|---5------------------------|---1---------------|
D|---0------------------------|---8------------------------|---5------------------------|---1---------------|
       Listen to song for strumming pattern
 I feel irrational          so confrontational       to tell the truth, like I'm getting away with murder

 Guitar 1
E|----------------------------|----------------------------|---------------------------|--------------------|
B|----------------------------|----------------------------|---------------------------|--------------------|
G|----------------------------|----------------------------|---------------------------|--------------------|
D|---0------------------------|---8------------------------|---3-----------------------|---1----------------|
A|---0------------------------|---8------------------------|---3-----------------------|---1----------------|
D|---0------------------------|---8------------------------|---3-----------------------|---1----------------|

 Guitar 2
E|----------------------------|----------------------------|--------------------------|---------------------|
B|----------------------------|----------------------------|--------------------------|---------------------|
G|----------------------------|----------------------------|--------------------------|---------------------|
D|---0------------------------|---8------------------------|---3----------------------|---1-----------------|
A|---0------------------------|---8------------------------|---3----------------------|---1-----------------|
D|---0------------------------|---8------------------------|---3----------------------|---1-----------------|
 It isn't possible          to never tell the truth       but the reality is     I'm getting away with murder

(1:04)
(Bass Guitar)
----------------------------|
----------------------------|
----------------------------|
---0--0-12--0--0--0-12--0---|
  (Getting away..)

 (1:07 VERSE)
 Guitar 1
E|----------------------------|----------------------------|----------|----------------------------|
B|----------------------------|----------------------------|----------|----------------------------|
G|----------------------------|----------------------------|----------|----------------------------|
D|----------------------------|----------------------------|----------|---------------x--x--3--5---|
A|----------------------------|----------------------------|----------|---------------x--x--3--5---|
D|----------------------------|----------------------------|----------|---------------x--x--3--5---|

 Guitar 2
E|--------------------------|-------------------------|--------------------------|-------------------------|
B|--------------------------|-------------------------|--------------------------|-------------------------|
G|--------------------------|-------------------------|--------------------------|-------------------------|
D|---0--0--0--0--0--0--0--3-|--7--7--7--7--7--7-10--7-|---8--8--8--8--8--8--8-10-|--7--7--7--7--7--7--3--5-|
A|---0--0--0--0--0--0--0--3-|--7--7--7--7--7--7-10--7-|---8--8--8--8--8--8--8-10-|--7--7--7--7--7--7--3--5-|
D|---0--0--0--0--0--0--0--3-|--7--7--7--7--7--7-10--7-|---8--8--8--8--8--8--8-10-|--7--7--7--7--7--7--3--5-|
Light P.M...........................................    Light P.M..........................................
    I drink my drink and I don't even want to  I think my thoughts when   I   don't     even     need     to

 (1:16)
 Guitar 1
E|----------------------------|----------------------------|----------|----------------------------|
B|----------------------------|----------------------------|----------|----------------------------|
G|----------------------------|----------------------------|----------|----------------------------|
D|---0--0--0------------------|----------------------------|----------|---------------x--x--3--5---|
A|---0--0--0------------------|----------------------------|----------|---------------x--x--3--5---|
D|---0--0--0------------------|----------------------------|----------|---------------x--x--3--5---|

 Guitar 2
E|--------------------------|--------------------------|-------------------------|-------------------------|
B|--------------------------|--------------------------|-------------------------|-------------------------|
G|--------------------------|--------------------------|-------------------------|-------------------------|
D|---0--0--0--0--0--0--0--3-|--7--7--7--7--7--7-10--7--|--8--8--8--8--8--8--8-10-|--7--7--7--7--7--7--3--5-|
A|---0--0--0--0--0--0--0--3-|--7--7--7--7--7--7-10--7--|--8--8--8--8--8--8--8-10-|--7--7--7--7--7--7--3--5-|
D|---0--0--0--0--0--0--0--3-|--7--7--7--7--7--7-10--7--|--8--8--8--8--8--8--8-10-|--7--7--7--7--7--7--3--5-|
 Light P.M...........................................   Light P.M...........................................
I never look back 'cause I don't even want to  and I don't need to    because I'm getting away with murder

 (1:25 CHORUS)
 Guitar 1
E|--(8)---------------(8)-----|-(10)--------(13)--(10)(13)-|-(15)-----------------------|-(10)-----------|
B|-------------(10)-----------|----------------------------|----------------------------|----------------|
G|----------------------------|----------------------------|----------------------------|----------------|
D|---0------------------------|---8------------------------|---5------------------------|---1------------|
A|---0------------------------|---8------------------------|---5------------------------|---1------------|
D|---0------------------------|---8------------------------|---5------------------------|---1------------|

 Guitar 2
E|----------------------------|----------------------------|----------------------------|-----------------|
B|----------------------------|----------------------------|----------------------------|-----------------|
G|----------------------------|----------------------------|----------------------------|-----------------|
D|---0------------------------|---8------------------------|---5------------------------|---1-------------|
A|---0------------------------|---8------------------------|---5------------------------|---1-------------|
D|---0------------------------|---8------------------------|---5------------------------|---1-------------|
    I feel irrational          so confrontational        to tell the truth, like I'm getting away with murder

 Guitar 1
E|----------------------------|----------------------------|----------------------------|----------------|
B|----------------------------|----------------------------|----------------------------|----------------|
G|----------------------------|----------------------------|----------------------------|----------------|
D|---0------------------------|---8------------------------|---3------------------------|---1------------|
A|---0------------------------|---8------------------------|---3------------------------|---1------------|
D|---0------------------------|---8------------------------|---3------------------------|---1------------|

 Guitar 2
E|----------------------------|----------------------------|----------------------------|-----------------|
B|----------------------------|----------------------------|----------------------------|-----------------|
G|----------------------------|----------------------------|----------------------------|-----------------|
D|---0------------------------|---8------------------------|---3------------------------|---1-------------|
A|---0------------------------|---8------------------------|---3------------------------|---1-------------|
D|---0------------------------|---8------------------------|---3------------------------|---1-------------|
  It isn't possible           to never tell the truth     but the reality is    I'm getting away with murder

(1:43) (Bass Guitar)
                            x3
----------------------------|----------------------------|
o--------------------------o|----------------------------|
o--------------------------o|----------------------------|
---0--0-12--0--0--0-12--0---|---0--0-12--0-0-------------|
   (Getting away...getting away...with murder)

 (1:53 BRIDGE)
 Guitar 1
E|--10------------------------|---9----------12------------|--13------------------------|--12-----------5---|
B|---x------------------------|---x-----------x------------|---x------------------------|---x-----------x---|
G|---7-----(tremolo-----------|---6-----------9------------|--10------------------------|---9-----------2---|
D|-----------picking)---------|----------------------------|----------------------------|-------------------|
A|----------------------------|----------------------------|----------------------------|-------------------|
D|----------------------------|----------------------------|----------------------------|-------------------|

 Guitar 2
E|----------------------------|----------------------------|----------------------------|-------------------|
B|----------------------------|----------------------------|----------------------------|-------------------|
G|----------------------------|----------------------------|----------------------------|-------------------|
D|--12-10----8----7-------x---|---8--8----10\-7--7---------|---3--3----3----3-------3-5-|---7--7----7----7--|
A|--12-10----8----7-------x---|---8--8----10\-7--7---------|---3--3----3----3-------3-5-|---7--7----7----7--|
D|--12-10----8----7-------x---|---8--8----10\-7--7---------|---3--3----3----3-------3-5-|---7--7----7----7--|


 (2:02)
 Guitar 1
E|--10------------------------|---9----------12------------|--13------------|--12-----------5------------|
B|---x------------------------|---x-----------x------------|---x------------|---x-----------x-(horsie----|
G|---7------------------------|---6-----------9------------|--10------------|---9-----------2----dive)---|
D|----------------------------|----------------------------|----------------|----------------------------|
A|----------------------------|----------------------------|----------------|----------------------------|
D|----------------------------|----------------------------|----------------|----------------------------|

 Guitar 2
E|----------------------------|---------------------|---------------------------|--------------------------|
B|----------------------------|---------------------|---------------------------|--------------------------|
G|----------------------------|---------------------|---------------------------|--------------------------|
D|--12-10----8----7-------x---|---8--8----10\-7--7--|--3--3----3----3-------3-5-|---7--7-------8--7--5--3--|
A|--12-10----8----7-------x---|---8--8----10\-7--7--|--3--3----3----3-------3-5-|---7--7-------8--7--5--3--|
D|--12-10----8----7-------x---|---8--8----10\-7--7--|--3--3----3----3-------3-5-|---7--7-------8--7--5--3--|

 (2:12 VERSE)
 Guitar 1
E|--10------------------------|---9----------12------------|--13-------|--12-----------5------------|
B|o--x----(strum as-----------|---x-----------x------------|---x-------|---x-----------x-----------o|
G|---7------8th notes)--------|---6-----------9------------|--10-------|---9-----------2------------|
D|----------------------------|----------------------------|-----------|----------------------------|
A|o---------------------------|----------------------------|-----------|---------------------------o|
D|----------------------------|----------------------------|-----------|----------------------------|

 Guitar 2
E|---------------------------|--------------------------|------------------------|--------------------------|
B|o--------------------------|--------------------------|------------------------|-------------------------o|
G|---------------------------|--------------------------|------------------------|--------------------------|
D|---0--0--0--0--0--0--0--3--|---7--7--7--7--7--7-10--7-|-8--8--8--8--8--8--8-10-|-7--7--7--7--7--7--3--5---|
A|o--0--0--0--0--0--0--0--3--|---7--7--7--7--7--7-10--7-|-8--8--8--8--8--8--8-10-|-7--7--7--7--7--7--3--5--o|
D|---0--0--0--0--0--0--0--3--|---7--7--7--7--7--7-10--7-|-8--8--8--8--8--8--8-10-|-7--7--7--7--7--7--3--5---|
    Light P.M........            Light P.M.......             Light P.M........            Light P.M.......

    Somewhere beyond happiness and sadness      I need to     calculate      what    creates my own madness
    And I'm addicted to your punishment         and you're the master      and I am craving this disaster

 (2:30 CHORUS)
 Guitar 1
E|--(8)---------------(8)-----|-(10)--------(13)--(10)(13)-|-(15)-----------------------|-(10)------------|
B|-------------(10)-----------|----------------------------|----------------------------|-----------------|
G|----------------------------|----------------------------|----------------------------|-----------------|
D|---0------------------------|---8------------------------|---5------------------------|---1-------------|
A|---0------------------------|---8------------------------|---5------------------------|---1-------------|
D|---0------------------------|---8------------------------|---5------------------------|---1-------------|

 Guitar 2
E|----------------------------|----------------------------|----------------------------|-------------------|
B|----------------------------|----------------------------|----------------------------|-------------------|
G|----------------------------|----------------------------|----------------------------|-------------------|
D|---0------------------------|---8------------------------|---5------------------------|---1---------------|
A|---0------------------------|---8------------------------|---5------------------------|---1---------------|
D|---0------------------------|---8------------------------|---5------------------------|---1---------------|
I feel irrational          so confrontational            to tell the truth, like I'm getting away with murder

 Guitar 1
E|----------------------------|----------------------------|----------------------------|-----------------|
B|----------------------------|----------------------------|----------------------------|-----------------|
G|----------------------------|----------------------------|----------------------------|-----------------|
D|---0------------------------|---8------------------------|---3------------------------|---1-------------|
A|---0------------------------|---8------------------------|---3------------------------|---1-------------|
D|---0------------------------|---8------------------------|---3------------------------|---1-------------|

 Guitar 2
E|----------------------------|----------------------------|----------------------------|-----------------|
B|----------------------------|----------------------------|----------------------------|-----------------|
G|----------------------------|----------------------------|----------------------------|-----------------|
D|---0------------------------|---8------------------------|---3------------------------|---1-------------|
A|---0------------------------|---8------------------------|---3------------------------|---1-------------|
D|---0------------------------|---8------------------------|---3------------------------|---1-------------|
It isn't possible          to never tell the truth       but the reality is      I'm getting away with murder

(2:49)
(Bass Guitar)
----------------------------|
----------------------------|
----------------------------|
---0--0-12--0--0--0-12--0---|
    (Getting away...)

 (2:51 CHORUS)
 Guitar 1
E|--(8)---------------(8)-----|-(10)--------(13)--(10)(13)-|-(15)-----------------------|-(10)-------------|
B|-------------(10)-----------|----------------------------|----------------------------|------------------|
G|----------------------------|----------------------------|----------------------------|------------------|
D|---0------------------------|---8------------------------|---5------------------------|---1--------------|
A|---0------------------------|---8------------------------|---5------------------------|---1--------------|
D|---0------------------------|---8------------------------|---5------------------------|---1--------------|

 Guitar 2
E|----------------------------|----------------------------|----------------------------|-------------------|
B|----------------------------|----------------------------|----------------------------|-------------------|
G|----------------------------|----------------------------|----------------------------|-------------------|
D|---0------------------------|---8------------------------|---5------------------------|---1---------------|
A|---0------------------------|---8------------------------|---5------------------------|---1---------------|
D|---0------------------------|---8------------------------|---5------------------------|---1---------------|
I feel irrational          so confrontational            to tell the truth, like I'm getting away with murder

 Guitar 1
E|----------------------------|----------------------------|----------------|----------------------------|
B|----------------------------|----------------------------|----------------|----------------------------|
G|----------------------------|----------------------------|----------------|----------------------------|
D|---0------------------------|---8------------------------|---3------------|---1------------------------|
A|---0------------------------|---8------------------------|---3------------|---1------------------------|
D|---0------------------------|---8------------------------|---3------------|---1------------------------|

 Guitar 2
E|----------------------------|----------------------------|-----------------|----------------------------|
B|----------------------------|----------------------------|-----------------|----------------------------|
G|----------------------------|----------------------------|-----------------|----------------------------|
D|---0------------------------|---8------------------------|---3-------------|---1------------------------|
A|---0------------------------|---8------------------------|---3-------------|---1------------------------|
D|---0------------------------|---8------------------------|---3-------------|---1------------------------|
It isn't possible          to never tell the truth       but the reality is      I'm getting away with murder

************************************

| x    Dead note
| (n)  Ghost note
| \    Slide down

************************************

https://tabs.ultimate-guitar.com/p/papa_roach/getting_away_with_murder_tab.htm