Tablature guitare : Owl City – Sunburn

Tuning: DAEAAe

Chords:

 C      Am     G      F      Dm
e-0---- -0---- -0---- -0---- -2----|
A-0---- -0---- -0---- -0---- -5----|
A-0---- -0---- -0---- -0---- -2----|
E-0---- -0---- -0---- -0---- -2----|
A-0---- -4---- -2---- -0---- -2----|
D-x---- -4---- -2---- -0---- -0----|


/=slide  H=harmonic x=mute

Intro:
  C                         G    Am   F
e-0----0--------------0------------------x-------------------|
A-0--------------------------------------x-H12---------------|
A-2/4----4/2-0------0---0-----0----0-----x-------------------|
E-0-------------2/4-------0----0----0----x-------------------|
A-0--------------------------------------x-------------------|
D-x-------------------------2----4----0--x-------------------|

  C                         G    Am   F
e-0----0--------------0--------------------------------------|
A-0----------------------------------------------------------|
A-2/4----4/2-0------0---0-----0----0-------------------------|
E-0-------------2/4-------0----0----0------------------------|
A-0----------------------------------------------------------|
D-x-------------------------2----4----0----------------------|

Play through out verse

  C                       Am          G
e-0-x-0-0-x-x-0-x-0-0-x-x-4-x-4-4-x-x-2-x-2-2-x-x------------|
A-0-x-0-0-x-x-0-x-0-0-x-x-4-x-4-4-x-x-2-x-2-2-x-x------------|
A-0-x-0-0-x-x-0-x-0-0-x-x-4-x-4-4-x-x-2-x-2-2-x-x------------|
E-0-x-0-0-x-x-0-x-0-0-x-x-4-x-4-4-x-x-2-x-2-2-x-x------------|
A-0-x-0-0-x-x-0-x-0-0-x-x-4-x-4-4-x-x-2-x-2-2-x-x------------|
D-x-x-x-x-x-x-x-x-x-x-x-x-4-x-4-4-x-x-2-x-2-2-x-x------------|

Chours:

  Dm F  Am G    Dm F  Am G    Dm F  Am G     F  Am F  G
e-2--0--0--0----2--0--0--0----2--0--0--0--2--0--0--0--0--|
A-5--4--0--0----5--4--0--0----5--4--0--0--2--0--0--0--0--|
A-2--0--2--0----2--0--0--0----2--0--2--0--2--0--0--0--0--|
E-2--0--0--0----2--0--5--4----2--0--0--0--2--2--5--2--4--|
A-2--0--0--2----2--0--4--2----2--0--0--2--2--0--4--0--2--|
D-0--0--4--2----0--0--4--2----0--0--4--2--1--0--4--0--2--|

(Back to intro)

Bridge:

C G Am F

https://tabs.ultimate-guitar.com/o/owl_city/sunburn_tab.htm