Tablature guitare : One Republic – Counting Stars

Author
Difficulty
Capo
intermediate
4th fret
[Intro]

   Am                  C                      G
e|------0---------0----------0-----------0----------------------------------|
B|------1---------1----------1-----------1----------0-----------0-----------|
G|---2----2----2----2-----0-----0-----0-----0-------0-----------0-----------|
D|-----------------------------------------------0-----0-----0-----0--------|
A|-0---------0---------3-----------3----------------------------------------|
E|--------------------------------------------3-----------3-----------------|

    F
e|--------------------------------------------------------------------------|
B|--------1------------1----------------------------------------------------|
G|--------2------------2----------------------------------------------------|
D|-----3-----3------3-----3-------------------------------------------------|
A|--3------------3----------------------------------------------------------|
E|--------------------------------------------------------------------------|

   Am                  C                      G
e|------0---------0----------0-----------0----------------------------------|
B|------1---------1----------1-----------1----------3-----------3-----------|
G|---2----2----2----2-----0-----0-----0-----0-------0-----------0-----------|
D|-----------------------------------------------0-----0-----0-----0--------|
A|-0---------0---------3-----------3----------------------------------------|
E|--------------------------------------------3-----------3-----------------|

    F
e|--------------------------------------------------------------------------|
B|--------1------------1-------------1---------------1----------------------|
G|--------2------------2-------------2---------------2----------------------|
D|-----3-----3------3-----3-------3-----3---------3-----3-------------------|
A|--3------------3-------------3---------------3----------------------------|
E|--------------------------------------------------------------------------|

  (background part)
e|--3--0-----3--0-----3--0-----------------------------------|
B|--------3--------3--------3---5----------------------------|
G|-----------------------------------------------------------|
D|-----------------------------------------------------------|
A|-----------------------------------------------------------|
E|-----------------------------------------------------------|

Am                 C
Lately, I've been, I've been losing sleep
G                              F
Dreaming about the things that we could be
    Am               C
But baby, I've been, I've been praying hard,
G                   
Said, no more counting dollars
F                              F
We'll be counting stars, yeah we'll be counting stars


[Verse]

           Am
I see this life like a swinging vine
C
Swing my heart across the line
G
In my face is flashing signs
F
Seek it out and ye shall find
Am
Oh, but I'm not that old
C
Young, but I'm not that bold
G
I don't think the world is sold
F
I'm just doing what we're told


[Pre-Chorus]

Am C                G
I feel something so right
          F
Doing the wrong thing
Am C                G
I feel something so wrong
          F
Doing the right thing
F
I could lie, could lie, could lie
F 
Everything that kills me makes me feel alive


[Chorus]

Am                 C   
Lately, I've been, I've been losing sleep
G                              F
Dreaming about the things that we could be
Am                   C               
But baby, I've been, I've been praying hard,
G
Said, no more counting dollars
F
We'll be counting stars
Am                 C
Lately, I've been, I've been losing sleep
G                              F
Dreaming about the things that we could be
Am                   C
But baby, I've been, I've been praying hard,
G                       
Said, no more counting dollars
F
We'll be, we'll be counting stars


[Verse]

           Am 
I feel the love and I feel it burn
C
Down this river, every turn
G
Hope is a four-letter word
F
Make that money, watch it burn
Am
Oh, but I'm not that old
C
Young, but I'm not that bold
G
I don't think the world is sold
F
I'm just doing what we're told


[Pre-Chorus]

Am  C                 G
I feel something so wrong
          F
Doing the right thing
        F
I could lie, could lie, could lie
F
Everything that drowns me makes me wanna fly


[Chorus]

Am                 C
Lately, I've been, I've been losing sleep
G                              F
Dreaming about the things that we could be
    Am               C
But baby, I've been, I've been praying hard,
G         
Said, no more counting dollars
F
We'll be counting stars
Am                 C
Lately, I've been, I've been losing sleep
G                              F
Dreaming about the things that we could be
    Am               C
But baby, I've been, I've been praying hard,
G              
Said, no more counting dollars
F
We'll be, we'll be counting stars


[Bridge]

N.C.
Take that money
N.C.
Watch it burn
N.C.                                                 
Sink in the river
N.C.                                                 
Sink in the river
N.C.                                                 
Sink in the river
N.C.                                                 
Sink in the river
N.C.
The lessons are learned..


[Interlude]

F               Dm
Everything that kills me makes feel alive


[Chorus]

Am                 C
Lately, I've been, I've been losing sleep
G                              F
Dreaming about the things that we could be
    Am               C
But baby, I've been, I've been praying hard,
G           
Said, no more counting dollars
F
We'll be counting stars
Am                 C
Lately, I've been, I've been losing sleep
G                              F
Dreaming about the things that we could be
    Am               C
But baby, I've been, I've been praying hard,
G                        
Said, no more counting dollars
F
We'll be, we'll be, counting stars


[Outro]

Am
Take that money, watch it burn
C
Sink in the river, the lessons are learned
G
Take that money, Watch it burn
F
Sink in the river, The lessons are learned
Am
Take that money, Watch it burn
C
Sink in the river, The lessons are learned
G
Take that money, Watch it burn
F 
Sink in the river, The lessons are learned

https://tabs.ultimate-guitar.com/o/onerepublic/counting_stars_ver2_crd.htm

So, this is my first tab. If there are any mistakes, please message me, and I will fix them. 🙂


e|--------------------------------------------------------------------------|
B|-----5--------5------------9--------9-------------------------------------|
G|-----6--------6------------9--------9--------------8---------8------------|
D|---6--------6------------9--------9----------------9---------9------------|
A|-4------4-4-----4------7------7-7-----7---------9---------9---------------|
E|---------------------------------------------7-------7-7------7-----------|
    

e|--------------------------------------------------------------------------|
B|--------------------------------------------------------------------------|
G|-----6--------6-----------------------------------------------------------|
D|-----7--------7-------------x2-play A two times then strum 4strings-------|
A|---7--------7-------------------------------------------------------------|
E|-5------5-5------5--------------------------------------------------------|
   A

This is a part of intro and also the chorus. 🙂
e|--------------------------------------------------------------------------|
B|---5---5---5---5-------9---9---9--9---------------------------------------|
G|---6---6---6---6-------9---9---9--9--------8---8---8---8------------------|
D|-------------------------------------------9---9---9---9------------------|
A|-4---4---4---4-------7---7---7---7----------------------------------------|
E|-----------------------------------------7---7---7---7--------------------|
    

e|--------------------------------------------------------------------------|
B|--------------------------------------------------------------------------|
G|---6---6---6---6----------------------------------------------------------|
D|---7---7---7---7----------------------------------------------------------|
A|--------------------------------------------------------------------------|
E|-5---5---5---5------------------------------------------------------------|

https://tabs.ultimate-guitar.com/o/onerepublic/counting_stars_tab.htm