Tablature guitare : Nirvana – You Know You’re Right

Nirvana
                                You know you're right
                               Tabbed by Ratm/Nirvana

TUNE HALF-STEP DOWN!
Eb
Bb
Gb
Db
Ab
Eb

(Oh yea and by the way, your not suppost to do this but
i bought the Nirvana official tab book from Guitar Center and this is how
it said to play it, so trust me.. its right!)

[Intro/verse]
(this is also played before he starts singing)

e|-------------------------------------------------------------|
B|-------------------------------------------------------------|
G|-------------------------------------------------------------|
D|-------4---4-------------------------------------------------|
A|-4---4---4-----4----4---4----4----4-----4-------4-----4------|
E|-0h2---------0---2--2-0----2---2--2-0-0---0-2-2-2-0-0--------|

e|-------------------------------------------------------------|
B|-------------------------------------------------------------|
G|-------------------------------------------------------------|
D|-------------4-----------------------------------------------|
A|---4---4---------4----4-----4-------4-----4---4----4---4-----|
E|-2---2-2-0-0---0---2--2-0-0---0-2-2-2-0-0---0---2--2-0-0-----|
(Some variations in the verse)


[Fill 1]

 "never speak a word"
e|------------------------------------------------|
B|-7-7-7-7-7-7-9-9-9-9-9-9-9-9-9-9----------------|
G|-7-7-7-7-7-7-9-9-9-9-9-9-9-9-9-9----------------|
D|-7-7-7-7-7-7-9-9-9-9-9-9-9-9-9-9----------------|
A|-5-5-5-5-5-5-7-7-7-7-7-7-7-7-7-7----------------|
E|------------------------------------------------|

Guitar 2 plays this over the top-
"Things have never been so swell..."

e|----------------------------------------------|
B|------7----------7----------9-----------------|
G|---------7------------------9-9---------------|
D|---7----------7---------------9---------------|
A|-5----------5------5-5h7--7-----7-7-7h12------|
E|----------------------------------------------|


[Chorus]

"Hey hey hey hey hey"

e|---------------------------------|
B|---------------------------------|
G|---------------------------------|
D|-4----4-4-4--4----4-4------------|
A|-4----4-4-4--4----4-4------------|
E|-0h2--2-2-0--0h2--2-2------------|
(Repeat 4 times than..)

"hey hey hey"

e|------------------------------------|
B|-7-7-7-7-7-7-7-9-9-9-9-9-9-9--------|
G|-7-7-7-7-7-7-7-9-9-9-9-9-9-9--------|
D|-7-7-7-7-7-7-7-9-9-9-9-9-9-9--------|
A|-5-5-5-5-5-5-5-7-7-7-7-7-7-7--------|
E|------------------------------------|

"you know you're right"
(tremelo pick these notes)

e|-14////---16//////--17--14-------|
B|---------------------------------|
G|---------------------------------|
D|---------------------------------|
A|---------------------------------|
E|---------------------------------|

Please rate or comment!

-Dont kill rock



************************************

| h  Hammer-on
| /  Slide up

************************************

https://tabs.ultimate-guitar.com/n/nirvana/you_know_youre_right_ver8_tab.htm