Tablature guitare : Nirvana – The Man Who Sold The World

Author
Tuning
D# G# C# F# A# D#
Album| Unplugged In New York
Year| Nov 18, 1993/released Nov 1, 1994
Official DVD of concert| released on Nov 20, 2007



[Intro]

e|------------------|----------------------|----|
B|------------------|----------------------|----|
G|-2-2-2-0--2h3p2-0-|-2-2-2-0--2h3p2-0-----|-2~-|
D|------------------|----------------------|----|
A|------------------|----------------------|----|
E|------------------|----------------------|----|


[Verse]
                     A                     Dm
We passed upon the stair spoke of was and when
                    A                       F
Although I wasn't there he said I was his friend
                   C                       A
Which came as a surprise I spoke into his eyes
                    Dm                    C5
I thought you died alone a long long time ago


[Instrumental]

C5   C5


[Chorus]

e|-------------------------------------------------------|
B|-------------------------------------------------------|
G|-------------2-3-5-------------------------------------|
D|------2-3-5--------------------0-2-3--------3----------|
A|-3-5---------------------0-1-3----------4-4---4--------|
E|--------------------1-3--------------------------------|

e|-------------------------------------------------------|
B|-------------------------------------------------------|
G|--------------------------------2-3-5------------------|
D|-------------0-2-3-------2-3-5-------------------0-2-3-|
A|------0-1-3---------3-5--------------------0-1-3-------|
E|-1-3-----------------------------------1-3-------------|

e|-------------------------|
B|--6--x-6-6-6-------------|
G|--6--x-6-6-6-------------|
D|--6--x-6-6-6-------------|
A|--4--x-4-4-4-------------|
E|-------------------------|


[Instrumental]

e|------------------|----------------------|----|
B|------------------|----------------------|----|
G|-2-2-2-0--2h3p2-0-|-2-2-2-0--2h3p2-0-----|-2~-|
D|------------------|----------------------|----|
A|------------------|----------------------|----|
E|------------------|----------------------|----|


[Verse 2]

                         A                         Dm
I laughed and shook his hand and made my way back home
                         A                          F
I searched for foreign land for years and years I roamed
                     C                         A
I gazed a gazeless stare we marched a million hills
                   Dm                    C5
I must have died alone a long long time ago
 
 
[Chorus]                

e|-------------------------------------------------------|
B|-------------------------------------------------------|
G|-------------2-3-5-------------------------------------|
D|------2-3-5--------------------0-2-3--------3----------|
A|-3-5---------------------0-1-3----------4-4---4--------|
E|--------------------1-3--------------------------------|

e|-------------------------------------------------------|
B|-------------------------------------------------------|
G|--------------------------------2-3-5------------------|
D|-------------0-2-3-------2-3-5-------------------0-2-3-|
A|------0-1-3---------3-5--------------------0-1-3-------|
E|-1-3-----------------------------------1-3-------------|

e|-------------------------|
B|--6--x-6-6-6-------------|
G|--6--x-6-6-6-------------|
D|--6--x-6-6-6-------------|
A|--4--x-4-4-4-------------|
E|-------------------------|


[Instrumental]

e|------------------|----------------------|----|
B|------------------|----------------------|----|
G|-2-2-2-0--2h3p2-0-|-2-2-2-0--2h3p2-0-----|-2~-|
D|------------------|----------------------|----|
A|------------------|----------------------|----|
E|------------------|----------------------|----|


[Chorus]

e|-------------------------------------------------------|
B|-------------------------------------------------------|
G|-------------2-3-5-------------------------------------|
D|------2-3-5--------------------0-2-3--------3----------|
A|-3-5---------------------0-1-3----------4-4---4--------|
E|--------------------1-3--------------------------------|

e|-------------------------------------------------------|
B|-------------------------------------------------------|
G|--------------------------------2-3-5------------------|
D|-------------0-2-3-------2-3-5-------------------0-2-3-|
A|------0-1-3---------3-5--------------------0-1-3-------|
E|-1-3-----------------------------------1-3-------------|

e|-------------------------|
B|--6--x-6-6-6-------------|
G|--6--x-6-6-6-------------|
D|--6--x-6-6-6-------------|
A|--4--x-4-4-4-------------|
E|-------------------------|


[Instrumental]

e|------------------|----------------------|----|
B|------------------|----------------------|----|
G|-2-2-2-0--2h3p2-0-|-2-2-2-0--2h3p2-0-----|-2~-|
D|------------------|----------------------|----|
A|------------------|----------------------|----|
E|------------------|----------------------|----|


[Solo]

e|--------------------------------------------------------|
B|--------------------------------------------------------|
G|-2-2-2-0--2h3p2-0--2-2-2-0--2/8/9/10--9-10\9-9-9-9-9\---|
D|--------------------------------------------------------|
A|--------------------------------------------------------|
E|--------------------------------------------------------|

Play through next 2 bars twice
e|--------------------------------------------------------------|
B|--------------------------------------------------------------|
G|-2-2-2-0--2h3p2-0--2-2-2-0--2--4/10-10--10-10-10--10-10-10\9--|
D|--------------------------------------------------------------|
A|--------------------------------------------------------------|
E|--------------------------------------------------------------|

e|--------------------------------------------------------|
B|--------------------------------------------------------|
G|-9\7-7--7-7--7-7-7-7--7/9-9-9--9-9-9--9-9--9\-----------|
D|--------------------------------------------------------|
A|--------------------------------------------------------|
E|--------------------------------------------------------|

e|--------------------------------------------------------|
B|--------------------------------------------------------|
G|-2-2-2-0--2h3p2-0--2-2-2-0--2h3p2-0----2~~~-------------|
D|--------------------------------------------------------|
A|--------------------------------------------------------|
E|--------------------------------------------------------|



***********************************
| /   Slide up
| \   Slide down
| h   Hummer-on
| p   Pull-off
| ~   Vibrato
| x   Dead note
***********************************

https://tabs.ultimate-guitar.com/n/nirvana/the_man_who_sold_the_world_ver3_tab.htm