Tablature guitare : Nirvana – Lounge Act

Lounge Act - Nirvana

[Intro/Verse]

       B                         G         C
E|----------------------------------------------------------------| 
B|----------------------------------------------------------------|
G|-----4-----4-----4-----4-----------------5---5------------------| 
D|-----4-----4-----4-----4-------5---x-----5---5------------------| 
A|-----2-----2-----2-----2-------5---x-----3---3------------------| 
E|-------------------------------3---x----------------------------|


[Chorus]

       E       A          D         G
E|------------------------------------------------------------------| 
B|------------------------------------------------------------------|
G|------------------------7----x------------------------------------| 
D|----2---2----7---7------7----x----5---5---5-----------------------|
A|----2---2----7---7------5----x----5---5---5-----------------------| 
E|----0---0----5---5----------------3---3---3-----------------------|


[Chorus continued]

     A           G#    G     F#    A
E|------------------------------------------------------------------|
B|------------------------------------------------------------------| 
G|------------------------------------------------------------------| 
D|---7-----7-----6-----5-----4-----7--------------------------------| 
A|---7-----7-----6-----5-----4-----7--------------------------------| 
E|---5-----5-----4-----3-----2-----5--------------------------------|