Tablature guitare : Nirvana – Lithium

Author
Difficulty
Tuning
novice
D# G# C# F# A# D#
-------------------------------------------------------------------------------
                                       Lithium - Nirvana
-------------------------------------------------------------------------------
Tabbed by: Mr.Rymy
Email: gtarhead@windowslive.com

Tuning: Tune down a step

Note: This tab isn't 100% accuracy. It's just the way I've used to
play the song. Other interpretations are more than possible :).


[Intro]

    Clean
  PM................. ..........................................
e|---------------------------------------------------------------------------|
B|---------------------------------------------------------------------------|
G|-------------------6------------------------7--------------7---------------|
D|-------------------6---------7---5--5-5/7-7-7---4--4-4/7-7-7---------------|
A|--2/-------6-----4---------7---0-3--3-3/5-5-5-0-2--2-2/5-5-5-0-------------|
E|--0--x-0-4---x-0-----x-0-5-------------------------------------------------|


[Verse]

  PM................. ............
e|---------------------------------------------------------------------------|
B|---------------------------------------------------------------------------|
G|------------------------------------5-------7------4-------7---------------|
D|-------------------6---------7------5-5/7-7-7------4-4/7-7-7---------------|
A|-----------6-----4---------7---0-3-----/5-5-5-0-2-----/5-5-5-0-------------|
E|--0--x-0-4---x-0-----x-0-5-------------------------------------------------|

e|---------------------------------------------------------------------------|
B|---------------------------------------------------------------------------|
G|------------------------------------5-------7------4-------7---------------|
D|-------------------6---------7------5-5/7-7-7------4-4/7-7-7---------------|
A|-----------6-----4---------7---0-3-----/5-5-5-0-2-----/5-5-5-0-------------|
E|--0--x-0-4---x-0-----x-0-5-------------------------------------------------|
x2
                                                  Dist on
e|---------------------------------------------------------------------------|
B|---------------------------------------------------------------------------|
G|------------------------------------5-------7----------7-7-7---------------|
D|-------------------6---------7------5-5/7-7-7---4--4-4/7-7-7---------------|
A|-----------6-----4---------7---0-3-----/5-5-5-0-2--2-2/5-5-5-0-------------|
E|--0--x-0-4---x-0-----x-0-5-------------------------------------------------|


[Chorus]

e|---------------------------------------------------------------------------|
B|---------------------------------------------------------------------------|
G|----------------6--6--------0-5--5-5/7-7-7-7-4--4-4/7-7-7-7----------------|
D|--2--2-2/6--6-6-6--6-7--7-7-0-5--5-5/7-7-7-7-4--4-4/7-7-7-7----------------|
A|--2--2-2/6--6-6-4--4-7--7-7-0-3--3-3/5-5-5-5-2--2-2/5-5-5-5----------------|
E|--0--0-0-4--4-4------5--5-5------------------------------------------------|
3x


[Verse]

    Clean
e|---------------------------------------------------------------------------|
B|---------------------------------------------------------------------------|
G|------------------------------------5-------7------4-------7---------------|
D|-------------------6---------7------5-5/7-7-7------4-4/7-7-7---------------|
A|-----------6-----4---------7---0-3-----/5-5-5-0-2-----/5-5-5-0-------------|
E|--0--x-0-4---x-0-----x-0-5-------------------------------------------------|
3x
                                                  Dist on
e|---------------------------------------------------------------------------|
B|---------------------------------------------------------------------------|
G|------------------------------------5-------7----------7-7-7---------------|
D|-------------------6---------7------5-5/7-7-7---4--4-4/7-7-7---------------|
A|-----------6-----4---------7---0-3-----/5-5-5-0-2--2-2/5-5-5-0-------------|
E|--0--x-0-4---x-0-----x-0-5-------------------------------------------------|


[Chorus]

e|---------------------------------------------------------------------------|
B|---------------------------------------------------------------------------|
G|----------------6--6--------0-5--5-5/7-7-7-7-4--4-4/7-7-7-7----------------|
D|--2--2-2/6--6-6-6--6-7--7-7-0-5--5-5/7-7-7-7-4--4-4/7-7-7-7----------------|
A|--2--2-2/6--6-6-4--4-7--7-7-0-3--3-3/5-5-5-5-2--2-2/5-5-5-5----------------|
E|--0--0-0-4--4-4------5--5-5------------------------------------------------|
3x


[Chorus 2]

e|---------------------------------------------------------------------------|
B|---------------------------------------------------------------------------|
G|--2------5--5---2--2---5-------2--2---5--5---2--2---5-5-5------------------|
D|--2------5--5---2--2---5-------2--2---5--5---2--2---5-5-5------------------|
A|--0--0-0-3--3-0-0--0-0-3-------0--0-0-3--3-0-0--0-0-3-3-3-0----------------|
E|-------------------------0-3-4---------------------------------------------|
4x

    v v v v v v v   v v v v v
e|---------------------------------------------------------------------------|
B|---------------------------------------------------------------------------|
G|--7-7-7-7-7-7-7---4-4-4-4-4------------------------------------------------|
D|--7-7-7-7-7-7-7---4-4-4-4-4------------------------------------------------|
A|--5-5-5-5-5-5-5-0-2-2-2-2-2-0-3h0------------------------------------------|
E|------------------------------b--------------------------------------------|
                                p

[During the bass solo]
(Clean)

e|---------------------------------------------------------------------------|
B|---------------------------------------------------------------------------|
G|---------------------------------------------------------------------------|
D|---------------------------------------------------------------------------|
A|---------------------------------------------------------------------------|
E|---------------------------------------------------------------------------|

e|---------------------------------------------------------------------------|
B|---------------------------------------------------------------------------|
G|------------------------------------5--------------------------------------|
D|------------------------------------5-5------------------------------------|
A|---------------------------------3-----------------------------------------|
E|---------------------------------------------------------------------------|

e|---------------------------------------------------------------------------|
B|---------------------------------------------------------------------------|
G|---------------------------------------------------x-----------------------|
D|---------------------------------------------------x-x-x-x-7---------------|
A|------------------------------------------------x------x-x-x-0-------------|
E|---------------------------------------------------------------------------|

e|---------------------------------------------------------------------------|
B|---------------------------------------------------------------------------|
G|------------------------------------x--------------x-----------------------|
D|------------------------------------x-x-x-x-x------x-x-x-x(7)--------------|
A|---------------------------------x------x-x-x-x-x------x-x-x-0-------------|
E|---------------------------------------------------------------------------|

                                                  Dist on
e|---------------------------------------------------------------------------|
B|---------------------------------------------------------------------------|
G|------------------------------------5-------7----------7-7-7---------------|
D|------------------------------------5-5/7-7-7---4--4-4/7-7-7---------------|
A|---------------------------------3-----/5-5-5-0-2--2-2/5-5-5-0-------------|
E|---------------------------------------------------------------------------|


[Chorus]

e|---------------------------------------------------------------------------|
B|---------------------------------------------------------------------------|
G|----------------6--6--------0-5--5-5/7-7-7-7-4--4-4/7-7-7-7----------------|
D|--2--2-2/6--6-6-6--6-7--7-7-0-5--5-5/7-7-7-7-4--4-4/7-7-7-7----------------|
A|--2--2-2/6--6-6-4--4-7--7-7-0-3--3-3/5-5-5-5-2--2-2/5-5-5-5----------------|
E|--0--0-0-4--4-4------5--5-5------------------------------------------------|
3x


[Chorus 2]

e|---------------------------------------------------------------------------|
B|---------------------------------------------------------------------------|
G|--2------5--5---2--2---5-------2--2---5--5---2--2---5-5-5------------------|
D|--2------5--5---2--2---5-------2--2---5--5---2--2---5-5-5------------------|
A|--0--0-0-3--3-0-0--0-0-3-------0--0-0-3--3-0-0--0-0-3-3-3-0----------------|
E|-------------------------0-3-4---------------------------------------------|
4x

    v v v v v v v   v v v v v
e|---------------------------------------------------------------------------|
B|---------------------------------------------------------------------------|
G|--7-7-7-7-7-7-7---4-4-4-4-4------------------------------------------------|
D|--7-7-7-7-7-7-7---4-4-4-4-4------------------------------------------------|
A|--5-5-5-5-5-5-5-0-2-2-2-2-2-0-3h0------------------------------------------|
E|-------------------------------b-------------------------------------------|
                               (1/4) Let ring...
                                 p


************************************************************
| /  Slide up
| \  Slide down
| h  Hammer-on
| p  Pull-off
| x  Mute note
| b  Bend
| PM Palm mute
| v  Down stroke
************************************************************

https://tabs.ultimate-guitar.com/n/nirvana/lithium_ver8_tab.htm