Tablature guitare : Nirvana – Lake Of Fire

USED CHORDS

  A     x02220
  Bb    x13331
  C5    x355xx
  D5    x577xx
  Dm    xx0231
  Dsus2 xx0230
  F5    133xxx
  Gm    3553xx

[Intro]

Chord names refer to parts of this tab so the 
second 'GFC' is the same as the first 'GFC' etc.

    GFC                   GDC     
e|-------------------------------------------------------|
B|-------------------------------------------------------|
G|-3--3------------3-----3--3--------5---5---5-3---------|
D|-5--5----5-3--3--3-----5--5--x-x-x-5---5---5-3---------|
A|-5--5----5-3--3--1-----5--5--x-x-x-3---3---3-1---------|
E|-3--3----3\1--1--------3--3----------------------------|
 |
e|-------------------------------------------------------|
B|-----------------------------------5b6r5b6r5-3---------|
G|-----------------------------------5b6r5b6r5-3---------|
D|-------------------------------------------------------|
A|-------------------------------------------------------|
E|-------------------------------------------------------|

    GFC      DFC
e|--------------------------------|
B|--------------------------------|
G|----------5--5-----5------------|
D|----------5--5-----5--3--3--5---|
A|----------3--3-----3--3--3--5---|
E|----------------------1--1--3---|

    GFG                        
e|--------------------------------|
B|--------------------------------|
G|-3---3--------------------------|
D|-5---5-------5---3---3---5------|
A|-5---5-------5---3---3---5------|
E|-3---3-------3---1---1---3------|
 |
e|--------------------------------|
B|--------------------------------|
G|--------------------------------|
D|---------------------3----------|
A|-5-5-5-5-5-5-5-5-3---1---5------|
E|-3-3-3-3-3-3-3-3-1-------3------|

    GFG
e|-----|
B|-----|
G|-----|
D|-----|
A|-----|
E|-----|
 |
e|-----------------------------------------|
B|----11~-11~-11~-11~-11~-11~\--6~--6~/8~--|
G|-/10--10~-10~-10~-10~-10~--\5~--5~--/7~--|
D|-----------------------------------------|
A|-----------------------------------------|
E|-----------------------------------------|


[Verse 1]

    GFC                   GDC     
e|-------------------------------------------------------|
B|-------------------------------------------------------|
G|-3--3------------3-----3--3--------5---5---5-3---------|
D|-5--5----5-3--3--3-----5--5--x-x-x-5---5---5-3---------|
A|-5--5----5-3--3--1-----5--5--x-x-x-3---3---3-1---------|
E|-3--3----3\1--1--------3--3----------------------------|
 |
e|-------------------------------------------------------|
B|-----------------------------------5b6r5b6r5-3---------|
G|-----------------------------------5b6r5b6r5-3---------|
D|-------------------------------------------------------|
A|-------------------------------------------------------|
E|-------------------------------------------------------|

    GFC      DFC
e|--------------------------------|
B|--------------------------------|
G|----------5--5-----5------------|
D|----------5--5-----5--3--3--5---|
A|----------3--3-----3--3--3--5---|
E|----------------------1--1--3---|

    GFG                        
e|--------------------------------|
B|--------------------------------|
G|-3---3--------------------------|
D|-5---5-------5---3---3---5------|
A|-5---5-------5---3---3---5------|
E|-3---3-------3---1---1---3------|
 |
e|--------------------------------|
B|--------------------------------|
G|--------------------------------|
D|---------------------3----------|
A|-5-5-5-5-5-5-5-5-3---1---5------|
E|-3-3-3-3-3-3-3-3-1-------3------|

    GFG
e|-----|
B|-----|
G|-----|
D|-----|
A|-----|
E|-----|
 |
e|-----------------------------------------|
B|----11~-11~-11~-11~-11~-11~\--6~--6~/8~--|
G|-/10--10~-10~-10~-10~-10~--\5~--5~--/7~--|
D|-----------------------------------------|
A|-----------------------------------------|
E|-----------------------------------------|


[Chorus]

Dm - Bb - Dm - A  
Dm - Bb - C  - Dm Dsus2


[Verse 2]

    GFC                   GDC     
e|-------------------------------------------------------|
B|-------------------------------------------------------|
G|-3--3------------3-----3--3--------5---5---5-3---------|
D|-5--5----5-3--3--3-----5--5--x-x-x-5---5---5-3---------|
A|-5--5----5-3--3--1-----5--5--x-x-x-3---3---3-1---------|
E|-3--3----3\1--1--------3--3----------------------------|
 |
e|-------------------------------------------------------|
B|-----------------------------------5b6r5b6r5-3---------|
G|-----------------------------------5b6r5b6r5-3---------|
D|-------------------------------------------------------|
A|-------------------------------------------------------|
E|-------------------------------------------------------|

    GFC      DFC
e|--------------------------------|
B|--------------------------------|
G|----------5--5-----5------------|
D|----------5--5-----5--3--3--5---|
A|----------3--3-----3--3--3--5---|
E|----------------------1--1--3---|

    GFG                        
e|--------------------------------|
B|--------------------------------|
G|-3---3--------------------------|
D|-5---5-------5---3---3---5------|
A|-5---5-------5---3---3---5------|
E|-3---3-------3---1---1---3------|
 |
e|--------------------------------|
B|--------------------------------|
G|--------------------------------|
D|---------------------3----------|
A|-5-5-5-5-5-5-5-5-3---1---5------|
E|-3-3-3-3-3-3-3-3-1-------3------|

    GFG
e|-----|
B|-----|
G|-----|
D|-----|
A|-----|
E|-----|
 |
e|-----------------------------------------|
B|----11~-11~-11~-11~-11~-11~\--6~--6~/8~--|
G|-/10--10~-10~-10~-10~-10~--\5~--5~--/7~--|
D|-----------------------------------------|
A|-----------------------------------------|
E|-----------------------------------------|


[Chorus]

Dm - Bb - Dm - A  
Dm - Bb - C  - Dm Dsus2


[Verse 3]

Play main part, but play both GFG parts twice!

    GFC                   GDC     
e|-------------------------------------------------------|
B|-------------------------------------------------------|
G|-3--3------------3-----3--3--------5---5---5-3---------|
D|-5--5----5-3--3--3-----5--5--x-x-x-5---5---5-3---------|
A|-5--5----5-3--3--1-----5--5--x-x-x-3---3---3-1---------|
E|-3--3----3\1--1--------3--3----------------------------|
 |
e|-------------------------------------------------------|
B|-----------------------------------5b6r5b6r5-3---------|
G|-----------------------------------5b6r5b6r5-3---------|
D|-------------------------------------------------------|
A|-------------------------------------------------------|
E|-------------------------------------------------------|

    GFC      DFC
e|--------------------------------|
B|--------------------------------|
G|----------5--5-----5------------|
D|----------5--5-----5--3--3--5---|
A|----------3--3-----3--3--3--5---|
E|----------------------1--1--3---|

    GFG                        
e|--------------------------------|
B|--------------------------------|
G|-3---3--------------------------|
D|-5---5-------5---3---3---5------|
A|-5---5-------5---3---3---5------|
E|-3---3-------3---1---1---3------|
 |
e|--------------------------------|
B|--------------------------------|
G|--------------------------------|
D|---------------------3----------|
A|-5-5-5-5-5-5-5-5-3---1---5------|
E|-3-3-3-3-3-3-3-3-1-------3------|

    GFG
e|-----|
B|-----|
G|-----|
D|-----|
A|-----|
E|-----|
 |
e|-----------------------------------------|
B|----11~-11~-11~-11~-11~-11~\--6~--6~/8~--|
G|-/10--10~-10~-10~-10~-10~--\5~--5~--/7~--|
D|-----------------------------------------|
A|-----------------------------------------|
E|-----------------------------------------|


[Solo]

e|------3---------3---------------------------------------|
B|--2-3---3--6b7------6-----------------------------------|
G|----------------------5-3-------------------------------|
D|--------------------------5-3----------------------3-5--|
A|------------------------------5-4-3----------3-4-5------|
E|------------------------------------6-3----6------------|

e|--------------------------------------------------------|
B|--3b4---------------6~----6~----------------------------|
G|--3b4-------(0)-5/7----7~----7\5--3---------------------|
D|-------5----------------------------5-------0-3---3-----|
A|-----------------------------------------/5-----5---5---|
E|--------------------------------------------------------|

e|-------------------------------3------------------------|
B|--------------------6~------/3---3-7-3------------------|
G|----------------5/7----7\--------------3-5--------------|
D|-------------------------------------------3---5--------|
A|--3-----------------------------------------------------|
E|----6-3-3-3----------------------------------3----------|

e|--------------------------------------------------------|
B|--3b4------3b4-----3b4----------------------------------|
G|--3b4------3b4-----3b4----------------------------------|
D|------5-5------5-------5-3------------------------3-----|
A|---------------------------5-4-3------------3-4-5-------|
E|---------------------------------6-3----3-6-------------|

e|----------------------|
B|----------------------|
G|------(3)-----(4)-----|
D|--3h5-----(3)-----5---|
A|----------------------|
E|----------------------|

Solo variation

e|-------3---------3-------------------------------------|
B|--2/3-----3--6b-----6----------------------------------|
G|------------------------5--3---------------------------|
D|------------------------------5--3---------------------|
A|------------------------------------5--4--3------------|
E|---------------------------------------------6--3----3-|

e|-------------------------------------------------------|
B|------------------3b---------6~-6~---------------------|
G|------------------3b------/7--7~----5--3---------------|
D|-----------3--5-------5-------------------5--5--3------|
A|-----3--5-----------------------------------------5-5--|
E|--6----------------------------------------------------|

e|-------------------------------------------------------|
B|-------------------------------------------------------|
G|-------------------------------------------------------|
D|-3---3-------------------------------------------------|
A|---5---5--3--------------------------------------------|
E|-------------6-3--3--3---------------------------------|

e|-------------3-----------------------------------------|
B|-----6~--------3-6---3--------------3b---------3b------|
G|--/7------/7-------5---5-3----------3b---------3b------|
D|---------------------------5---4/5~----5--4/5~----5----|
A|-------------------------------------------------------|
E|-------------------------------------------------------|

e|-------------------------------------------------------|
B|--3----------------------------------------------------|
G|--3----------------------------------------------------|
D|-----5-3-----------------------3-3h5-------------------|
A|---------5-4-3-----------3-4-5-------------------------|
E|---------------6-3---3-6--------------3--6--3~---------|


************************************

| x    Dead note
| (n)  Ghost note
| h    Hammer-on
| r    Release
| b    Bend
| /    Slide up
| \    Slide down
| ~    Vibrato 

************************************


Originally by the Meat Puppets, but Nirvana did a great cover on their Unplugged album.
Please done bitch about this tab it took me ages to do, and it may not be perfect but
there are worse tabs on this site.. ahem *cough cough* blink 182 tabs *cough cough* if
you think its shit then give it a bad rating.

https://tabs.ultimate-guitar.com/n/nirvana/lake_of_fire_ver2_tab.htm