Tablature guitare : Nickelback – Side Of A Bullet

    Side of a Bullet
Tabbed by:
K.C. Allen
keith.c.allen@gmail.com  

This is pretty dang accurate folks... and hella-fun to play! I didn't include
palm mutes and such, but if you can't figure those technicalities out on your
own (from listening to the song)... give up playing and give your guitar to
someone who can!
                               
                                                                                
C#||intro-----------------|-------------------------|----------------------|
G#||----------------------|-------------------------|----------------------|
E ||-------------------7--|-------------------------|----------5----------7|
B ||-------------------5--|-------------------------|----------3----------5|
F#||-0--0------0--0----3--|--0--0----5--------6-----|--5--0-------0--0-----|
B ||-0--0------0--0-------|--0--0----5--3--5--6--3--|-----0-------0--0-----|


                                                                             
-------------------------|------------------------|------------------------|
-------------------------|------------------------|------------------------|
-------------------------|----------5-------------|------------------------|
-------------------------|----------3----------5--|------------------------|
--0--0----5--------6-----|--5--0-------0--0----3--|--0--0----5--------6----|
--0--0----5--3--5--6--3--|-----0-------0--0-------|--0--0----5--3--5--6--3-|


                                                                         
------------------------|--------------------------|--verse-------------|
------------------------|--------------------------|--------------------|
----------5----------7--|--------------------------|--------------------|
----------3----------5--|--------------------------|--------------------|
--5--0-------0--0-------|--0-----------3--------5--|--0--0--------------|
-----0-------0--0-------|--0--6--5--3-----5--3-----|--0--0--------------|


                                                                       
-------------------------|--------------------|-------------------------|
-------------------------|--------------------|-------------------------|
-------------------------|--------------------|-------------------------|
-------------------------|--------------------|-------------------------|
-------------3--------5--|--0--0--------------|-------------3--------5--|
----6--5--3-----5--3-----|--0--0--------------|----6--5--3-----5--3-----|


                                                       
---------------------------|--------------------------|
---------------------------|--------------------------|
---------------------------|--------------------------|
---------------------------|--------------------------|
--0--0----0-0--0-0--0------|--0-----------3--------5--|
--0--0----0-0--0-0--0--10--|--0--6--5--3-----5--3-----|


                                                                               
---------------------------|-------------------------|---------------------|
---------------------------|-------------------------|---------------------|
---------------------------|-------------------------|---------------------|
---------------------------|-------------------------|---------------------|
--0--0----0-0--0-0--0------|--0-----------3--------5-|--0--0---------0-----|
--0--0----0-0--0-0--0--10--|--0--6--5--3-----5--3----|--0--0----3~~--0---3~|


                                                                            
-------------------------|-----------------------|-------------------------|
-------------------------|-----------------------|-------------------------|
-------------------------|-----------------------|-------------------------|
-------------------------|-----------------------|-------------------------|
-------------3--------5--|--0--0---------0-------|-------------3--------5--|
----6--5--3-----5--3-----|--0--0----3~~--0----3~~|----6--5--3-----5--3-----|


                                                                          
-----------------------|-------------------------|-----------------------|
-----------------------|-------------------------|-----------------------|
-----------------------|-------------------------|-----------------------|
-----------------------|-------------------------|-----------------------|
--0--0---------0-------|-------------3--------5--|--0--0---------0-------|
--0--0----3~~--0----3~~|----6--5--3-----5--3-----|--0--0----3~~--0----3~~|


                                                        
-------------------------|-chorus----------------------|
-------------------------|-----------------------------|
-------------------------|-----------------------------|
-------------------------|-----------------------------|
-------------3--------5--|--0--0------10-------12------|
----6--5--3-----5--3-----|--0--0-/12--------0------10/-|


                                                                                
------------------------|----------------------------|---------------------|
------------------------|----------------------------|---------------------|
------------------------|----------------------------|---------------------|
------------------------|----------------------------|---------------------|
----------3----------5--|--0--0------10-------12-----|----------3----------|
----0h-3-------0--3-----|--0--0-/12-------0------10/-|----0h-3-----0---5--3|


                                                       
-----------------------------|------------------------|
-----------------------------|------------------------|
-----------------------------|------------------------|
-----------------------------|------------------------|
--0--0------10-------12------|----------3----------5--|
--0--0-/12--------0------10/-|----0h-3-------0--3-----|


                                                         
-----------------------------|------------------------||
-----------------------------|------------------------||
-----------------------------|------------------------||
-----------------------------|------------------------||
--0--0------10-------12------|----------3-------------||
--0--0-/12--------0------10/-|----0h-3-------0--5--3--||

Source : https://tabs.ultimate-guitar.com/n/nickelback/side_of_a_bullet_tab.htm