Tablature guitare : Nickelback – Savin Me

Author
Tuning
C G C F A D
Artist : Nickelback
Song   : Savin Me
Album  : All the Right Reasons
Tuning : Drop C

Moderate Rock Q=84

[Intro/Verse] (acoustic) "Prison gates won't open up for me"
D|--------------------------------------------------------------------------|
A|--------------------------------------------------------------------------|
F|-----0---------0-------0---------0-------0---------0-------0---------0----|
C|---7---------7---7---7---7-----3---0---7---------7---7---7---7-----7---0--|
G|--------------------------------------------------------------------------|
C|-8-----0-3-3-------5-------0-0-------8-----0-3-3-------5-------5-5--------|


[Pre-Chorus] "Come please I'm calling"
D|-------------------------------|
A|-------------------------------|
F|--------0------------0---------|
C|-----7------------7-----7------|
G|-------------------------------|
C|--8--------0-3-3---------------|


[Chorus] "Show me what it's like to be the last one standing" 
D|--5--5--5--5------------------3--3--3--3------------------|
A|--5--5--5--5----6--6--6--6----3--3--3--3----8--8--8--8----|
F|--7--7--7--7----5--5--5--5----5--5--5--5----7--7--7--7----| 
C|--7--7--7--7----3--3--3--3----5--5--5--5----5--5--5--5----|
G|--5--5--5--5----3--3--3--3----3--3--3--3----5--5--5--5----|
C|----------------3--3--3--3------------------5--5--5--5----|

Chorus (dist.) "Say it for me, say it to me"
D|-------------------------------------------------------|
A|-------------------------------------------------------|
F|-10-10-10-10----5--5--5--5----7--7--7--7----7----10----| 
C|--8--8--8--8----3--3--3--3----5--5--5--5----7----10----|
G|--8--8--8--8----3--3--3--3----5--5--5--5----5-----8----|
C|--8--8--8--8----3--3--3--3----5--5--5--5----0----------|
                                            

D|--------------------------------------|
A|--------------------------------------|
F|-10-10-10-10-----5--5--5--5-----7-----| 
C|--8--8--8--8-----3--3--3--3-----5-----|
G|--8--8--8--8-----3--3--3--3-----5-----|
C|--8--8--8--8-----3--3--3--3-----5-----|
      
                           
[Solo]
D|-------------------------------------------------------------------|
A|-------------------------------------------------------------------|
F|-------------------------------------------------------------------|
C|--/8p7----------/8p7----------/8p7-------------/7-5-/5-3-5---------|
G|--------10-8-10-------10-8-10-------10-8-10-5-8--------------------|
C|-------------------------------------------------------------------|

D|-------------------------------------------------------------------|
A|-------------------------------------------------------------------|
F|-------------------------------------------------------------------|
C|--/8p7-------------/7-5-7-7-7-7/8-8-8-8/10-10-10-10/12-12-12-------|
G|-------10-8-10-5-8-------------------------------------------------|
C|-------------------------------------------------------------------|

D|-------------------------------------------------------------------|
A|--/11p10-----------/11p10------------/11p10------------------------|
F|----------12-10-12----------12-10-12---------12-10-12-7-10---------|
C|-------------------------------------------------------------------|
G|-------------------------------------------------------------------|
C|-------------------------------------------------------------------|

D|---------------------------------------------------15--------------|
A|--/10-8-/8-6-8/10-10-10-10/11-11-11-13h15p13-13--------------------|
F|------------------------------------------------15-----------------|
C|-------------------------------------------------------------------|
G|-------------------------------------------------------------------|
C|-------------------------------------------------------------------|


[Bridge]
D|------------------------------------------------|
A|------------------------------------------------|
F|--2-2-2-2---5-5-5-5---12-12-12-12---7-7-7-7-----| 
C|--0-0-0-0---3-3-3-3---10-10-10-10---5-5-5-5-----|
G|--0-0-0-0---3-3-3-3---10-10-10-10---5-5-5-5-----|
C|--0-0-0-0---3-3-3-3---10-10-10-10---5-5-5-5-----|

End with the chorus again.



************************************

| h  Hammer-on
| p  Pull-off
| /  Slide up

************************************

Source : https://tabs.ultimate-guitar.com/n/nickelback/savin_me_ver5_tab.htm