Tablature guitare : Nickelback – How You Remind Me

[Intro/Verse]

(Never made it as a wise man......)
Clean Guitar

e|------------|
B|------------|
G|-5--5--3--3-|
D|-5--3--3--1-|
A|-3--3--1--1-|
E|----3-----1-|

 When distorted comes in
e|-----------------|
B|-----------------|
G|-3-3-3-3-3-3-3-3-|
D|-3-3-3-3-1-1-1-1-|
A|-1-1-1-1-1-1-1-1-|
E|---------1-1-1-1-|
 ( P.M.  )


[Chorus]

(Not like you, to say sorry.....)
Distorted Guitars

e|------------|
B|------------|
G|-5--3--3--5-|
D|-5--1--3--3-|
A|-3--1--1--3-|
E|----1-----3-|

(Yeah, Yeah, Yeah, No, No)

e|------------|
B|------------|
G|-5--5--3--3-|
D|-5--3--3--1-|
A|-3--3--1--1-|
E|----3-----1-|

Other part with no drums and stuff.

(Never made it as a wise man)
Clean Guitar

e|------------|
B|------------|
G|-5--5--3--3-|
D|-5--3--3--1-|
A|-3--3--1--1-|
E|----3-----1-|

(And this is how you remind me)

e|---------|
B|---------|
G|-5--5--3-|
D|-5--3--3-|
A|-3--3--1-|
E|----3----|

That is the whole song my homies. There is a few little picking parts and stuff but
it really doesn't matter if you wanna play the song. There may be a few octave variations
and shit but i assure you, this tab sounds awesome if you work it out.

Source 1 : https://tabs.ultimate-guitar.com/n/nickelback/how_you_remind_me_ver2_tab.htm