Tablature guitare : Nickelback – Animals

Difficulty
Tuning
intermediate
D A D G B E
[Intro]

HEAVY DISTORTION
e|------------------------|
B|------------------------|
G|-7--------5r------------|
D|-7-0r--3r-5r-5-5-5r-----|
A|-5-0r--3r-3r-5-5-5r-----|
D|---0r--3r----5-5-5r-----|


[Pre-Verse]

e|-------------------------------------------------------|
B|-------------------------------------------------------|
G|-7-7r-----5r---------3-3/5-5/7-7-------5r--------------|
D|-7-7r--3r-5r-5-5-5r--3-3/5-5/7-7-0--3r-5r-5-5-5r-------|
A|-5-5r--3r-3r-5-5-5r--1-1/3-3/5-5-0--3r-3r-5-5-5r-------|
D|-------3r----5-5-5r--------------0--3r----5-5-5r-------|


[Verse]

“I’m driving past your house…”
e|-------------------------------------------------------------------|
B|-------------------------------------------------------------------|
G|------------------------------------------------5-5r--5-5-5r--5----|
D|--0r--0-0-0r--0-0-0r--0-0-0r--0-5-5r--5-5-5r--5-5-5r--5-5-5r--5----|
A|--0r--0-0-0r--0-0-0r--0-0-0r--0-5-5r--5-5-5r--5-3-3r--3-3-3r--3----|
D|--0r--0-0-0r--0-0-0r--0-0-0r--0-5-5r--5-5-5r--5--------------------|


[Chorus]

“Screaming no!”
e|-----------------------------------|
B|-----------------------------------|
G|-7--------5r---------3-3/5-5/7-7---|
D|-7-0r--3r-5r-5-5-5r--3-3/5-5/7-7---|
A|-5-0r--3r-3r-5-5-5r--1-1/3-3/5-5---|
D|---0r--3r----5-5-5r----------------|


[Post-Chorus]

“So come on baby, get in…”
e|-----------------------------|
B|-----------------------------|
G|---x--7--------5r------------|
D|---x--7-0r--3r-5r-5-5-5r-----|
A|---x--5-0r--3r-3r-5-5-5r-----|
D|---x----0r--3r----5-5-5r-----|


[Outro]

e|--------------------------------------------------------------------|
B|--------------------------------------------------------------------|
G|--------------------------------------------------------------------|
D|-----------------------------------0r-------------------------------|
A|-----------------------------------0r-------------------------------|
D|--10h12p0-10h12p0-10h12p0-10h12p0--0r-------------------------------|

Song structure:

(intro) x 4
(pre-verse) x 2
(verse) x 2
(chorus) x 4
(post-chorus) x 4
(verse) x 2
(chorus) x 4
(post-chorus) x 4
(verse) x 2
(chorus) x 8
(outro) x 1


************************************

| x  Dead note
| h  Hammer-on
| p  Pull-off
| r  Release
| /  Slide up

************************************

Source : https://tabs.ultimate-guitar.com/n/nickelback/animals_ver3_tab.htm