Tablature guitare : Neil Young – Heart Of Gold (Live)

[Intro]

       Em7                         D             Em
e|--------0---0---0---0---0---0--|-2---(2)---2---0-----------------|
B|--------3---3---3---3---3---3--|-3---(3)---3---0-----------------|
G|--------0---0---0---0---0---0--|-2---(2)---2---0-----------------|
D|--------2---2---2---2---2---2--|-0---(0)---0---2------------0h2--|
A|--------2---2---2---2---2---2--|---------------2-------0h2---h2--|
E|-(0)-0--0---0---0---0---0---0--|---------------0-----------------|

       Em7                         D             Em
e|--------0---0---0---0---0---0--|-2---(2)---2---0-----------------|
B|--------3---3---3---3---3---3--|-3---(3)---3---0-----------------|
G|--------0---0---0---0---0---0--|-2---(2)---2---0-----------------|
D|--------2---2---2---2---2---2--|-0---(0)---0---2------------0h2--|
A|--------2---2---2---2---2---2--|---------------2-------0h2---h2--|
E|--0-----0---0---0---0---0---0--|---------------0-----------------|

       Em7                         D             Em
e|--------0---0---0---0---0---0--|-2---(2)---2---0-----------------|
B|--------3---3---3---3---3---3--|-3---(3)---3---0-----------------|
G|--------0---0---0---0---0---0--|-2---(2)---2---0-----------------|
D|--------2---2---2---2---2---2--|-0---(0)---0---2------------0h2--|
A|--------2---2---2---2---2---2--|---------------2-------0h2---h2--|
E|--0-----0---0---0---0---0---0--|---------------0-----------------|


[Verse]

      Em7         C                 D             Em
e|----------------0---0--(0)-----|------2---(0)--3---3---(0)-------------|
B|----------------1---1--(0)-----|------3---(0)--0---0---(0)-------------|
G|---------0------0---0--(0)-----|--2---2---(0)--0---0---(0)-------------|
D|---------2------2---2----------|------0--------0---0-------------------|
A|-------2---0----3---3----------|-0-------------2---2-------------------|
E|---0---------------------------|---------------3---3-------------------|


[Verse]

Em C D G
I want to live, I want to give
Em  C   D   G
I've been a miner for a heart of gold
Em   C D   G
It's these expressions I never give


[Chorus]

Em7 G
That keep me searching for a heart of gold
C  Am  G
And I'm getting old
Em7 G
That keep me searching for a heart of gold
C  Am  G
And I'm getting old


[Verse]

Em   C   D   G
I've been to Hollywood, I've been to Redwood
Em   C   D   G
I've crossed the ocean for a heart of gold
Em   C   D   G
I've been in my mind, it's such a fine line


[Chorus]

Em7  G
That keeps me searching for a heart of gold
C  Am  G
And I'm getting old
Em7  G
That keeps me searching for a heart of gold
C  Am  G
And I'm getting old


[Chorus]

Em  D Em
Keep me searching for a heart of gold
Em D   Em
You keep me searching and I'm getting old
Em  D Em
Keep me searching for a heart of gold
Em  G
I've been a miner for a heart of gold


[Outro]

   Am           G
e|--------------3------------------------|
B|--------------0------------------------|
G|--------------0------------------------|
D|--------------0------------------------|
A|--0--3--2--0--2------------------------|
E|--------------3------------------------|

****************
| h - hammer on
|(n) - Ghost note
****************

https://tabs.ultimate-guitar.com/n/neil_young/heart_of_gold_live_tab.htm