Tablature guitare : Muse – Supermassive Black Hole

Artist: Muse
Song: Supermassive Black Hole
Album: Black Holes & Revelations
Tuning: Standard
Tabbed By James Morris


[Intro]

E|----------------------------|
B|----------------------------|
G|----------------------------|
D|----------------------------| x3
A|----10b----------10b--------|
E|-0------0--0-0-0-----0--0-0-|

E|--------------------------------------|
B|--------------------------------------|
G|------------------------2(4)2-0h2p0---|
D|------------------------------------2-|
A|----10b----------10b------------------|
E|-0------0--0-0-0-----0----------------|


[Main Riff/Verse 1]

E|---------------------------------------------------------------------|
B|---------------------------------------------------------------------|
G|---------------------------------------------------------------------|
D|---------------------------------------------------------------------|
A|----10b--------------10b-----7-7-5----10b--------------10b-----7-7-8-|
E|-0------0-0-3-3-3-0------0-0-5-5-3-0------0-0-3-3-3-0------0-0-5-5-6-|

E|-------------------------------------------------------------|
B|-------------------------------------------------------------|
G|-------------------------------------------------------------|
D|-------------------------------------------------------------|
A|----10b--------------10b-----7-7-5----10b--------------10b---|
E|-0------0-0-3-3-3-0------0-0-5-5-3-0------0-0-3-3-3-0------0-|

E|---------------|
B|---------------|
G|-2(4)2-0h2p0---|
D|-------------2-|
A|---------------|
E|---------------|


[Pre-Chorus]

E|-----------------------------------------------------------------|
B|-----------------------------------------------------------------|
G|-----------------------------------------------------------------|
D|-----7-----7-7-------5---------------9-----8-7-5-----------------|
A|-----------------------------------------------------------------|
E|-5-5---5-5-----4-3-3---3-3-5-5-6-7-7---7-7-------0-0-0-2-2-3-3-4-|

E|-----------------------------------------------------------------|
B|-----------------------------------------------------------------|
G|-----------------------------------------------------------------|
D|-----7-----7-7-------5---------------9-----8-7-5-----------------|
A|---------------------------------------------------2---4---5---6-|
E|-5-5---5-5-----4-3-3---3-3-5-5-6-7-7---7-7---------0---2---3---4-|


[Chorus]

E|-----------------------------------------------------------------|
B|-----------------------------------------------------------------|
G|-----------------------------------------------------------------|
D|-----7-----7-7-------5---------------9-----8-7-5-----------------|
A|-----------------------------------------------------------------|
E|-5-5---5-5-----4-3-3---3-3-5-5-6-7-7---7-7-------0-0-0-2-2-3-3-4-|

E|-----------------------------------------------------------------|
B|-----------------------------------------------------------------|
G|-----------------------------------------------------------------|
D|-----7-----7-7-6-----5---------------9-----8-7-5-----------------|
A|-----------------------------------------------------------------|
E|-5-5---5-5-------3-3---3-3-5-5-6-7-7---7-7---------7-7-6-5-5-3-2-|


[Verse 2]

E|---------------------------------------|
B|---------------------------------------|
G|---------------------------------------|
D|---------------------------------------|
A|---------------------------------------|
E|-0~------------------0~----------------|

E|--------------------------------------------------------------------|
B|--------------------------------------------------------------------|
G|--------------------------------------------------------------------|
D|--------------------------------------------------------------------|
A|----10b--------------10b-----7-7-5----10b--------------10b----------|
E|-0------0-0-3-3-3-0------0-0-5-5-3-0------0-0-3-3-3-0------0~-------|


[Pre-Chorus]

E|-----------------------------------------------------------------|
B|-----------------------------------------------------------------|
G|-----------------------------------------------------------------|
D|-----7-----7-7-------5---------------9-----8-7-5-----------------|
A|-----------------------------------------------------------------|
E|-5-5---5-5-----4-3-3---3-3-5-5-6-7-7---7-7-------0-0-0-2-2-3-3-4-|

E|-----------------------------------------------------------------|
B|-----------------------------------------------------------------|
G|-----------------------------------------------------------------|
D|-----7-----7-7-------5---------------9-----8-7-5-----------------|
A|---------------------------------------------------2---4---5---6-|
E|-5-5---5-5-----4-3-3---3-3-5-5-6-7-7---7-7---------0---2---3---4-|


[Chorus]

E|-----------------------------------------------------------------|
B|-----------------------------------------------------------------|
G|-----------------------------------------------------------------|
D|-----7-----7-7-------5---------------9-----8-7-5-----------------|
A|-----------------------------------------------------------------|
E|-5-5---5-5-----4-3-3---3-3-5-5-6-7-7---7-7-------0-0-0-2-2-3-3-4-|

E|-----------------------------------------------------------------|
B|-----------------------------------------------------------------|
G|-----------------------------------------------------------------|
D|-----7-----7-7-6-----5---------------9-----8-7-5-----------------|
A|-----------------------------------------------------------------|
E|-5-5---5-5-------3-3---3-3-5-5-6-7-7---7-7---------7-7-6-5-5-3-2-|


[Interlude]

   ‘Supermassive Black Hole’
E|----------------------------|
B|----------------------------|
G|----------------------------|
D|----------------------------| x3
A|----10b----------10b--------|
E|-0------0--0-0-0-----0--0-0-|

E|----------------------------|
B|----------------------------|
G|----------------------------|
D|----------------------------| 
A|----10b----------10b--------|
E|-0------0--0-0-0-----0~-----|


[Solo]

 (Played Over Main Riff)

E|-------------------------------------------------------|
B|-------------10bu-----10h12p10h12p10h12p10h12p10bu~----|
G|-/4---/14\12-------x-----------------------------------|
D|-------------------x-----------------------------------|
A|-------------------------------------------------------|
E|-------------------------------------------------------|

E|--------------------------|
B|-12bu-/10---15-------(18)-|
G|------------17bu(19)------|
D|--------------------------|
A|--------------------------|
E|--------------------------|


[Pre-Chorus]

E|-----------------------------------------------------------------|
B|-----------------------------------------------------------------|
G|-----------------------------------------------------------------|
D|-----7-----7-7-------5---------------9-----8-7-5-----------------|
A|-----------------------------------------------------------------|
E|-5-5---5-5-----4-3-3---3-3-5-5-6-7-7---7-7-------0-0-0-2-2-3-3-4-|

E|-----------------------------------------------------------------|
B|-----------------------------------------------------------------|
G|-----------------------------------------------------------------|
D|-----7-----7-7-------5---------------9-----8-7-5-----------------|
A|---------------------------------------------------2---4---5---6-|
E|-5-5---5-5-----4-3-3---3-3-5-5-6-7-7---7-7---------0---2---3---4-|


[Chorus]

E|-----------------------------------------------------------------|
B|-----------------------------------------------------------------|
G|-----------------------------------------------------------------|
D|-----7-----7-7-------5---------------9-----8-7-5-----------------|
A|-----------------------------------------------------------------|
E|-5-5---5-5-----4-3-3---3-3-5-5-6-7-7---7-7-------0-0-0-2-2-3-3-4-|

E|-----------------------------------------------------------------|
B|-----------------------------------------------------------------|
G|-----------------------------------------------------------------|
D|-----7-----7-7-6-----5---------------9-----8-7-5-----------------|
A|-----------------------------------------------------------------|
E|-5-5---5-5-------3-3---3-3-5-5-6-7-7---7-7---------7-7-6-5-5-3-2-|


[Outro]

(Interlude)

   ‘Supermassive Black Hole’
E|----------------------------|
B|----------------------------|
G|----------------------------|
D|----------------------------| x3
A|----10b----------10b--------|
E|-0------0--0-0-0-----0--0-0-|

E|----------------------------|
B|----------------------------|
G|----------------------------|
D|----------------------------| (* represents harmonic. Best played on
A|----10b----------10b----x*--|    the third frets)
E|-0------0--0-0-0-----0--x*--|



********************************
|x    Dead note
|~    Vibrato
|/    Slide up
|\    Slide down
|h    Hammer-on
|p    Pull-off
|b    Bend
|*    Harmonics
********************************

E|---------------|
B|---------------|
G|-2(3)2-0h2p0---| 
D|-------------2-|
A|---------------|
E|---------------|

That might sound better

https://tabs.ultimate-guitar.com/m/muse/supermassive_black_hole_ver5_tab.htm