Tablature guitare : Metallica – Whiskey In The Jar

    ____________________
   / Whiskey in the Jar /  This song was originally an Irish folk (drinking)song.
  / Metallica          /  The first metal-cover was actually made by Thin Lizzy
 / Garage Inc.        /  in 1972, and this Metallica version from 1998 is dedicated
/____________________/  to their inspiration, Thin Lizzy, on "Garace Inc.".

tuning: whole-step down (D G C F A D)
   key: F major (G major one whole-step down)


[INTRO]

Guitar 1:
e|--------|----------------|----------------|----------------|----------------|
B|--------|----------------|----------------|----------------|----------------|
G|--------|----------------|----------------|----------------|----------------|
D|5---4---|2-2-x-2-2-2-x-2-|2-2-x-2-2-2-x-5-|5-5-x-5-5-5-x-5-|5-5-x-5-5---4---|
A|5---4---|2-2-x-2-2-2-x-2-|2-2-x-2-2-2-x-5-|5-5-x-5-5-5-x-5-|5-5-x-5-5---4---|
E|3---2---|0-0-x-0-0-0-x-0-|0-0-x-0-0-0-x-3-|3-3-x-3-3-3-x-3-|3-3-x-3-3---2---|

Guitar 2:
e|--------|----------------|----------------|----------------|----------------|
B|--------|----------------|8---------------|----------------|8---------------|
G|7-7h9h11|--9-11-7-9/12~--|--------7-7h9h11|--9-11-7-9/12b14-----------------|
D|--------|----------------|----------------|----------------|----------------|
A|--------|----------------|----------------|----------------|----------------|
E|--------|----------------|----------------|----------------|----------------|

e|----------------|----------------|----------------|----------------|
B|----------------|----------------|----------------|----------------|
G|----------------|----------------|----------------|----------------|
D|2-2-x-2-2-2-x-2-|2-2-x-2-2-2-x-5-|5-5-x-5-5-5-x-5-|5-5-x-5-5-5-x-5-|
A|2-2-x-2-2-2-x-2-|2-2-x-2-2-2-x-5-|5-5-x-5-5-5-x-5-|5-5-x-5-5-5-x-5-|
E|0-0-x-0-0-0-x-0-|0-0-x-0-0-0-x-3-|3-3-x-3-3-3-x-3-|3-3-x-3-3-3-x-3-|
 |
e|----------------|----------------|----------------|----------------|
B|----------------|8---------------|----------------|3---------------|
G|r12~----7-7h9h11|--9-11-7-9/12~--|---------0-0h2h4|--0-2-0-2/4-0---|
D|----------------|----------------|----------------|----------------|
A|----------------|----------------|----------------|----------------|
E|----------------|----------------|----------------|----------------|


[1st VERSE]

e|-----------------|-----------------|-----------------|-----------------|
B|-----------------|-----------------|-----------------|-----------------|
G|-----------------|-----------------|-----------------|-----------------|
D|-5-5-----5-5-----|-5-5-----5\4-----|-2-2-----2-2-----|-2-2-----2-2-x-5-|
A|-5-5-x-5-5-5-x-5-|-5-5-x-5-5\4---2-|-2-2-x-2-2-2-x-2-|-2-2-x-2-2-2-x-3-|
E|-3-3-x-3-3-3-x-3-|-3-3-x-3-3\2---0-|-0-0-x-0-0-0-x-0-|-0-0-x-0-0-0-----|
 |
e|-----------------|-----------------|-----------------|-----------------|
B|-----------------|-----------------|-----------------|-----------------|
G|-----------------|-4-4-----4-4-----|-----------------|-----------------|
D|-----------------|-5-5-----5-5-----|-2-2-----2-2-----|-2-2-----2-2-----|
A|-------------x-5-|-5-5-x-5-5-5-x-5-|-2-2-x-2-2-2-x-2-|-2-2-x-2-2-2-x-2-|
E|-------------x-3-|-----x-3-----x-3-|-0-0-x-0-0-0-x-0-|-0-0-x-0-0-0-x-0-|
  As I was goin' over the Cork and Kerry mountains

e|-----------------|-----------------|-----------------|-----------------|
B|-----------------|-----------------|-----------------|-----------------|
G|-5-5-----5-5-----|-5-5-----5-5-----|-4-4-----4-4-----|-4-4-----4-4-----|
D|-5-5-x-5-5-5-x-5-|-5-5-x-5-5-5-----|-5-5-----5-5-----|-5-5-----5-5-----|
A|-3-3-x-3-3-3-x-3-|-3-3-x-3-3-3-x-5-|-5-5-x-5-5-5-x-5-|-5-5-x-5-5-5-x-0-|
E|-----------------|-------------x-3-|-----x-3-----x-3-|-----x-3-----x-0-|
 |
e|-----------------|-----------------|-----------------|-----------------|
B|-----------------|-----------------|-----------------|-----------------|
G|-5-5-----5-5-----|-5-5-----5-5-----|-----------------|-----------------|
D|-5-5-x-5-5-5-x-5-|-5-5-x-5-5-5-x-5-|-5-5-----5-5-----|-5-5-----5-5-----|
A|-3-3-x-3-3-3-x-3-|-3-3-x-3-3-3-x-3-|-5-5-x-5-5-5-x-5-|-5-5-x-5-5-5-x-5-|
E|-----------------|-----------------|-3-3-x-3-3-3-x-3-|-3-3-x-3-3-3-x-3-|
  I saw Captain Farrel an' his money he was countin'

e|-----------------|-----------------|-----------------|-----------------|
B|-----------------|-----------------|-----------------|-----------------|
G|-----------------|-----------------|-----------------|-----------------|
D|-5-5-----5-5-----|-5-5-----5\4-----|-2-2-----2-2-----|-2-2-----2-2-x-5-|
A|-5-5-x-5-5-5-x-5-|-5-5-x-5-5\4---2-|-2-2-x-2-2-2-x-2-|-2-2-x-2-2-2-x-3-|
E|-3-3-x-3-3-3-x-3-|-3-3-x-3-3\2---0-|-0-0-x-0-0-0-x-0-|-0-0-x-0-0-0-----|
 |
e|-----------------|-----------------|-----------------|-----------------|
B|-----------------|-----------------|-----------------|-----------------|
G|-4-4-----4-4-----|-4-4-----4-4-----|-----------------|-----------------|
D|-5-5-----5-5-----|-5-5-----5-5-----|-2-2-----2-2-----|-2-2-----2-2-----|
A|-5-5-x-5-5-5-x-5-|-5-5-x-5-5-5-x-5-|-2-2-x-2-2-2-x-2-|-2-2-x-2-2-2-x-2-|
E|-----x-5-----x-3-|-----x-3-----x-3-|-0-0-x-0-0-0-x-0-|-0-0-x-0-0-0-x-0-|
  I first produced my pistol and then produced my rapier


e|-----------------|-----------------|-----------------|-----------------|
B|-----------------|-----------------|-----------------|-----------------|
G|-5-5-----5-5-----|-5-5-----5-5-----|-----------------|-----------------|
D|-5-5-x-5-5-5-x-5-|-5-5-x-5-5-5-----|-5-5-----5-5-----|-5-5-----5---4---|
A|-3-3-x-3-3-3-x-3-|-3-3-x-3-3-3-x-5-|-5-5-x-5-5-5-x-5-|-5-5-x-5-5---4---|
E|-----------------|-------------x-3-|-3-3-x-3-3-3-x-3-|-3-3-x-3-3---2---|
 |
e|-----------------|-----------------|-----------------|-----------------|
B|-----------------|-----------------|-----------------|----------------7|
G|-5-5-----5-5-----|-5-5-----5-5-----|-4-4-----4-4-----|-4-4-------7-7-9-|
D|-5-5-x-5-5-5-x-5-|-5-5-x-5-5-5-x-5-|-5-5-----5-5-----|-5-5-------------|
A|-3-3-x-3-3-3-x-3-|-3-3-x-3-3-3-x-3-|-5-5-x-5-5-5-x-5-|-5-5-x-5---------|
E|-----------------|-----------------|-----x-3-----x-3-|-----x-3---------|
  I said stand and deliver or the devil he may take ya


[INTERLUDE]

e|-----------------|-----------------|-----------------|-----------------|
B|-----------------|-----------------|-----------------|-----------------|
G|-----------------|-----------------|-4-4-----4-4-----|-4-4-----4---3---|
D|-2-2-----2-2-----|-2-2-----2-2-----|-5-5-----5-5-----|-5-5-----5---4---|
A|-2-2-x-2-2-2-x-2-|-2-2-x-2-2-2-x-5-|-5-5-x-5-5-5-x-5-|-5-5-x-5-5---4---|
E|-0-0-x-0-0-0-x-0-|-0-0-x-0-0-0-x-3-|-3-3-x-3-3-3-x-3-|-3-3-x-3-3---2---|
 |
e|-----------------|-----------------|-----------------|-----------------|
B|-8---7-----------|----------------7|-8---7-----------|---------------8-|
G|---9---7-9/12~---|-----------7-7-9-|---9---7-9/12b14-|-r12~------7-9---|
D|-----------------|-----------------|-----------------|-----------------|
A|-----------------|-----------------|-----------------|-----------------|
E|-----------------|-----------------|-----------------|-----------------|
                    yeah

e|-----------------|-----------------|-----------------|-----------------|
B|-----------------|-----------------|-----------------|-----------------|
G|-----------------|-----------------|-4-4-----4-4-----|-4-4-----4-4-----|
D|-2-2-----2-2-----|-2-2-----2-2-----|-5-5-----5-5-----|-5-5-----5-5-----|
A|-2-2-x-2-2-2-x-2-|-2-2-x-2-2-2-x-5-|-5-5-x-5-5-5-x-5-|-5-5-x-5-5-5-x-5-|
E|-0-0-x-0-0-0-x-0-|-0-0-x-0-0-0-x-3-|-3-3-x-3-3-3-x-3-|-3-3-x-3-3-3-x-3-|
 |
e|--------------------------|------------------------|-------------------|-----------------|
B|-10b12-b12-10b12-b12-10-8-|-8h10p8---8\------------|7------------------|-----------------|
G|--------------------------|------------------5-5/79|---5-7-5-7b9r7p5-5-|-----------------|
D|--------------------------|------------------------|-------------------|-----------------|
A|--------------------------|------------------------|-------------------|-----------------|
E|--------------------------|------------------------|-------------------|-----------------|


[2nd VERSE]

Both Guitars:
e||-----------------|-----------------|-----------------|-----------------|
B||-----------------|-----------------|-----------------|-----------------|
G||-4-4-----4-4-----|-4-4-----4-4-3-3-|-----------------|---------------5-|
D||-5-5-----5-5-----|-5-5-----5-5-4-4-|-2-2-----2-2-----|-2-2-----2-2-x-5-|
A||-5-5-x-5-5-5-x-5-|-5-5-x-5-5-5-4-4-|-2-2-x-2-2-2-x-2-|-2-2-x-2-2-2-x-3-|
E||-3-3-x-3-3-3-x-3-|-3-3-x-3-3-3-2-2-|-0-0-x-0-0-0-x-0-|-0-0-x-0-0-0-----|
  I took all of his money and it was a pretty penny
  She swore that she loved me, no, never would she leave me

 |-----------------|-----------------|-----------------|-----------------||
 |-----------------|-----------------|-----------------|-----------------||
 |-5-5-----5-5-----|-5-5-----5-5-----|-4-4-----4-4-----|-4-4-----4-4-4-4-||
 |-5-5-x-5-5-5-x-5-|-5-5-x-5-5-5-x-0-|-5-5-----5-5-----|-5-5-----5-5-5-5-||
 |-3-3-x-3-3-3-x-3-|-3-3-x-3-3-3-x-0-|-5-5-x-5-5-5-x-5-|-5-5-x-5-5-5-5-5-||
 |-----------------|-------------x-0-|-3-3-x-3-3-3-x-3-|-3-3-x-3-3-3-3-3-||
  I took all of his money, yeah, an I brought 'em home to Molly
  But the devil take that woman, yeah, for you know she tricked me easy


[CHORUS]

1st Guitar:
e|-5---------------|-----------------|-----------------|-----------------|
B|-7---7-7-7-7-7-7-|-7-7-7-7-6-6-5-5-|-5---5---x-x-5---|-------x-x-x-5-55|
G|-7---7-7-7-7-7-7-|-7-7-7-7-6-6-5-5-|-5---5---x-x-5---|-------x-x-x-5-55|
D|-7---7-7-7-7-7-7-|-7-7-7-7-6-6-5-5-|-5---5---x-x-5---|-------x-x-x-5-55|
A|-5---5-5-5-5-5-5-|-5-5-5-5-4-4-3-3-|-3---3---x-x-3---|-------x-x-x-3-33|
E|-----------------|-----------------|-----------------|-----------------|

2nd Guitar:
e|-5---5-5-5-5-5-5-|-5---5---5---5---|---------------------|-----------------|
B|-7---7-7-7-7-7-7-|-8---7---5---7---|--8------------------|-----7-8---------|
G|-7---7-7-7-7-7-7-|-7---7---7---7---|--9---------9------9-|-----------9-----|
D|-7---7-7-7-7-7-7-|-7---7---7---7---|-10------10----------|-----------------|
A|-5---5-5-5-5-5-5-|-5---5---5---5---|-10---10--------10---|-----------------|
E|-----------------|-----------------|--8------------------|-----------------|
  Musha rain dum-a-do dum-a-da        Whack for my daddy-o


e|-----------------|-----------------|-----------------|-----------------|
B|-5-------5-5-5-5-|-5-5-5-5-5-5-5-5-|-----------------|-----------------|
G|-5-------5-5-5-5-|-5-5-5-5-5-5-5-5-|-4-4-----4-4-----|-4-4-----4---3---|
D|-5-------5-5-5-5-|-5-5-5-5-5-5-5-5-|-5-5-----5-5-----|-5-5-----5---4---|
A|-3-------3-3-3-3-|-3-3-3-3-3-3-3-3-|-5-5-x-5-5-5-x-5-|-5-5-x-5-5---4---|
E|-----------------|-----------------|-3-3-x-3-3-3-x-3-|-3-3-x-3-3---2---|
 |
e|------------------|-----------------|-----------------|-----------------|
B|--8---------8-----|-----7-8---------|-----------------|----------------7|
G|--9-------7---7-9-|-9---------9-----|-4-4-x-x-4-4-x-x-|-4-4-x-----7-7-9-|
D|-10---------------|-----------------|-5-5-x-x-5-5-x-x-|-5-5-x-----------|
A|-10---------------|-----------------|-5-5-x-x-5-5-x-x-|-3-3-x-----------|
E|--8---------------|-----------------|-3-3-x-x-3-3-x-x-|-3-3-x-----------|
 Whack for my daddy-o                There's whiskey in the jar-o


[INTERLUDE]

e|-----------------|-----------------|-----------------|-----------------|
B|-----------------|-----------------|-----------------|-----------------|
G|-----------------|-----------------|-4-4-----4-4-----|---------4---3---|
D|-2-2-----2-2-----|-2-2-----2-2-----|-5-5-----5-5-----|-5-5-----5---4---|
A|-2-2-x-2-2-2-x-2-|-2-2-x-2-2-2-x-5-|-5-5-x-5-5-5-x-5-|-5-5-x-5-5---4---|
E|-0-0-x-0-0-0-x-0-|-0-0-x-0-0-0-x-3-|-3-3-x-3-3-3-x-3-|-3-3-x-3-3---2---|
 |
e|-----------------|-----------------|-----------------|------------------|
B|-8---7-----------|----------------7|-8---7-----------|----------------8-|
G|---9---7-9/12----|-----------7-7-9-|---9---7-9/12----|-12~--------7-9---|
D|-----------------|-----------------|-----------------|------------------|
A|-----------------|-----------------|-----------------|------------------|
E|-----------------|-----------------|-----------------|------------------|

e|-----------------|-----------------|-----------------|-----------------|
B|-----------------|-----------------|-----------------|-----------------|
G|-----------------|-----------------|-4-4-----4-4-----|-4-4-----4-4-----|
D|-2-2-----2-2-----|-2-2-----2-2-----|-5-5-----5-5-----|-5-5-----5-5-----|
A|-2-2-x-2-2-2-x-2-|-2-2-x-2-2-2-x-5-|-5-5-x-5-5-5-x-5-|-5-5-x-5-5-5-x-5-|
E|-0-0-x-0-0-0-x-0-|-0-0-x-0-0-0-x-3-|-3-3-x-3-3-3-x-3-|-3-3-x-3-3-3-x-3-|
 |
e|------------------------------|-------------------|-------------------|------------------|
B|-b12r10-10b12-10b12r10-8-8h10-|-p8---8\-----------|-7-----------------|------------------|
G|------------------------------|-------------5-5-79|---5-7-5-7b9-7b9r8-|-5----------------|
D|------------------------------|-------------------|-------------------|------------------|
A|------------------------------|-------------------|-------------------|------------------|
E|------------------------------|-------------------|-------------------|------------------|


[3rd VERSE]

e|-----------------|-----------------|-----------------|-----------------|
B|-----------------|-----------------|-----------------|-----------------|
G|-4-4-----4-4-----|-4-4-----4-x-3-x-|-----------------|-----------------|
D|-5-5-----5-5-----|-5-5-----5-x-4-x-|-2-2-----2-2-----|-2-2-----2-2-x-5-|
A|-5-5-x-5-5-5-x-5-|-5-5-x-5-5-x-4-x-|-2-2-x-2-2-2-x-2-|-2-2-x-2-2-2-x-3-|
E|-3-3-x-3-3-3-x-3-|-3-3-x-3-3-x-2-x-|-0-0-x-0-0-0-x-0-|-0-0-x-0-0-0-----|
 |
e|-----------------|-----------------|-----------------|------------------|
B|-----------------|-----------------|-----------------|------------------|
G|-----------------|-7-7-7-7---7h9\--|-----------------|-9-9-9-9----9h11-9|
D|-----------------|-----------------|-9---------------|------------------|
A|-----------------|-----------------|-----------------|------------------|
E|-----------------|-----------------|-----------------|------------------|
  Being drunk and weiry I went to Molly's chamber


e|-----------------|-----------------|-----------------|-----------------|
B|-----------------|-----------------|-----------------|-----------------|
G|-5-5-----5-5-----|-5-5-----5-5-----|-4-4-----4-4-----|-4-4-----4-4-4-4-|
D|-5-5-x-5-5-5-x-5-|-5-5-x-5-5-5-x-0-|-5-5-----5-5-----|-5-5-----5-5-5-5-|
A|-3-3-x-3-3-3-x-3-|-3-3-x-3-3-3-x-0-|-5-5-x-5-5-5-x-5-|-5-5-x-5-5-5-5-5-|
E|-----------------|-------------x-0-|-3-3-x-3-3-3-x-3-|-3-3-x-3-3-3-3-3-|
 |
e|------------------|-----------------|-----------------|-----------------|
B|------------------|---------8-8-----|-----------------|-------5-------5-|
G|------------------|-----9-9-----9-7-|-7---------------|-----7---7---7---|
D|-10---------------|-----------------|-----------------|-----------------|
A|------------------|-----------------|-----------------|-----------------|
E|------------------|-----------------|-----------------|-----------------|
  Taking Molly with me, but I never knew the danger

e|-----------------|-----------------|-----------------|-----------------|
B|-----------------|-----------------|-----------------|-----------------|
G|-4-4-----4-4-----|-4-4-----4-4-3-3-|-----------------|---------------5-|
D|-5-5-----5-5-----|-5-5-----5-5-4-4-|-2-2-----2-2-----|-2-2-----2-2-x-5-|
A|-5-5-x-5-5-5-x-5-|-5-5-x-5-5-5-4-4-|-2-2-x-2-2-2-x-2-|-2-2-x-2-2-2-x-3-|
E|-3-3-x-3-3-3-x-3-|-3-3-x-3-3-3-2-2-|-0-0-x-0-0-0-x-0-|-0-0-x-0-0-0-----|
 |
e|-----------------|-----------------|-----------------|-------------------|
B|-----------------|-----------------|-----------------|-------------------|
G|-7---------------|-7-7-7-7---7h9---|-----------------|-9-9-9-9-9----11p9-|
D|-----------------|-----------------|-9---------------|-------------------|
A|-----------------|-----------------|-----------------|-------------------|
E|-----------------|-----------------|-----------------|-------------------|
  For about six or maybe seven, yeah, in walked Captain Farrel

e|-----------------|-----------------|-----------------|-----------------|
B|-----------------|-----------------|-----------------|-----------------|
G|-5-5-----5-5-----|-5-5-----5-5-----|-4-4-----4-4-----|-4-4-----4-4-4-4-|
D|-5-5-x-5-5-5-x-5-|-5-5-x-5-5-5-x-0-|-5-5-----5-5-----|-5-5-----5-5-5-5-|
A|-3-3-x-3-3-3-x-3-|-3-3-x-3-3-3-x-0-|-5-5-x-5-5-5-x-5-|-5-5-x-5-5-5-5-5-|
E|-----------------|-------------x-0-|-3-3-x-3-3-3-x-3-|-3-3-x-3-3-3-3-3-|
 |
e|------------------|-----------------|-----------------|-----------------|
B|------------------|---------8-8-----|-----------------|-----------------|
G|------------------|-----9-9-----9-7-|-7--------------9|\7---------------|
D|-10---------------|-----------------|-----------------|-----------------|
A|------------------|-----------------|-----------------|-----------------|
E|------------------|-----------------|-----------------|-----------------|
 I jumped up, fired my pistol, and I shot him with both barrels, yeah


[CHORUS]

e|-5---------------|-----------------|-----------------|-----------------|
B|-7---7-7-7-7-7-7-|-7-7-7-7-6-6-5-5-|-5---5---x-x-5---|-------x-x-x-5-55|
G|-7---7-7-7-7-7-7-|-7-7-7-7-6-6-5-5-|-5---5---x-x-5---|-------x-x-x-5-55|
D|-7---7-7-7-7-7-7-|-7-7-7-7-6-6-5-5-|-5---5---x-x-5---|-------x-x-x-5-55|
A|-5---5-5-5-5-5-5-|-5-5-5-5-4-4-3-3-|-3---3---x-x-3---|-------x-x-x-3-33|
E|-----------------|-----------------|-----------------|-----------------|
 |
e|-5---5-5-5-5-5-5-|-5---5---5---5---|---------------------|-----------------|
B|-7---7-7-7-7-7-7-|-8---7---5---7---|--8------------------|-----7-8---------|
G|-7---7-7-7-7-7-7-|-7---7---7---7---|--9---------9------9-|-----------9-----|
D|-7---7-7-7-7-7-7-|-7---7---7---7---|-10------10----------|-----------------|
A|-5---5-5-5-5-5-5-|-5---5---5---5---|-10---10--------10---|-----------------|
E|-----------------|-----------------|--8------------------|-----------------|
  Musha rain dum-a-do dum-a-da        Whack for my daddy-o

e|-----------------|-----------------|-----------------|-----------------|
B|-5-------5-5-5-5-|-5-5-5-5-5-5-5-5-|-----------------|-----------------|
G|-5-------5-5-5-5-|-5-5-5-5-5-5-5-5-|-4-4-----4-4-----|-4-4-----4---3---|
D|-5-------5-5-5-5-|-5-5-5-5-5-5-5-5-|-5-5-----5-5-----|-5-5-----5---4---|
A|-3-------3-3-3-3-|-3-3-3-3-3-3-3-3-|-5-5-x-5-5-5-x-5-|-5-5-x-5-5---4---|
E|-----------------|-----------------|-3-3-x-3-3-3-x-3-|-3-3-x-3-3---2---|
 |
e|--8----8---8-7~----|-8-7~----8-7--7h8|p7~--------------|-----------------|
B|--8----8-----------|-----------------|-----------------|----------------7|
G|--9----9-----------|-----------------|-----------------|-----------7-7-9-|
D|-10---10-----------|-----------------|-----------------|-----------------|
A|-10---10-----------|-----------------|-----------------|-----------------|
E|-------------------|-----------------|-----------------|-----------------|
  Whack for my daddy-o                  There's whiskey in the jar-o


[SOLO]

e|-----------------|-----------------|-----------------|-----------------|
B|-----------------|-----------------|-----------------|-----------------|
G|-----------------|-----------------|-4-4-----4-4-----|-4-4-----4-4-3-3-|
D|-2-2-----2-2-----|-2-2-----2-2-----|-5-5-----5-5-----|-5-5-----5-5-4-4-|
A|-2-2-x-2-2-2-x-2-|-2-2-x-2-2-2-x-5-|-5-5-x-5-5-5-x-5-|-5-5-x-5-5-5-4-4-|
E|-0-0-x-0-0-0-x-0-|-0-0-x-0-0-0-x-3-|-3-3-x-3-3-3-x-3-|-3-3-x-3-3-3-2-2-|
 |
e|---------------------|-------------------7-8-|-10-8-7-7h8p7----7------|--------7-8/10---------|
B|-8---7---------------|-----------------------|--------------10---10-8-|-7-8-10----------12-15-|
G|---9---7-9/12~---12~-|---12~---12~---12~-----|------------------------|-----------------------|
D|---------------------|-----------------------|------------------------|-----------------------|
A|---------------------|-----------------------|------------------------|-----------------------|
E|---------------------|-----------------------|------------------------|-----------------------|

e|-----------------|-----------------|-----------------|-----------------|
B|-----------------|-----------------|-----------------|-----------------|
G|-----------------|---------------5-|-5-5-----5-5-----|-5-x-5-x-5-x-5-x-|
D|-2-2-----2-2-----|-2-x-2-x-2-2-2-5-|-5-5-x-5-5-5-x-5-|-5-x-5-x-5-x-5-x-|
A|-2-2-x-2-2-2-x-2-|-2-x-2-x-2-2-2-3-|-3-3-x-3-3-3-x-3-|-3-x-3-x-3-x-3-x-|
E|-0-0-x-0-0-0-x-0-|-0-x-0-x-0-0-0---|-----------------|-----------------|
 |
e|-/12~---12----12-14b15---|-12------12--12-----------|-----------------------|--------------------------|
B|-----------15------------|-----15----15---12--15-15\|\13--12--10------------|-13p12p10-----------------|
G|-------------------------|--------------------------|-------------12--10--9-|---------12--10--9--7--5--|
D|-------------------------|--------------------------|-----------------------|--------------------------|
A|-------------------------|--------------------------|-----------------------|--------------------------|
E|-------------------------|--------------------------|-----------------------|--------------------------|

e|-----------------|-----------------|-----------------|-----------------|
B|-----------------|-----------------|-----------------|-----------------|
G|-4-4-----4-4-----|-4-4-----4-4-----|-4-4-----4-4-----|-4-4-----4-4-----|
D|-5-5-----5-5-----|-5-5-----5-5-----|-5-5-----5-5-----|-5-5-----5-5-----|
A|-5-5-x-5-5-5-x-5-|-5-5-x-5-5-5-x-5-|-5-5-x-5-5-5-x-5-|-5-5-x-5-5-5-x-5-|
E|-3-3-x-3-3-3-x-3-|-3-3-x-3-3-3-x-3-|-3-3-x-3-3-3-x-3-|-3-3-x-3-3-3-x-3-|
 |
e|-------------|-------x-x---7-8-|-10-8-7-7h8p7----7------|--------7-8/10---------|
B|-------------|-------x-x-------|--------------10---10-8-|-7-8-10----------12-15-|
G|-4b6r4b6r4b6-|r4-----x-x-------|------------------------|-----------------------|
D|-------------|-----------------|------------------------|-----------------------|
A|-------------|-----------------|------------------------|-----------------------|
E|-------------|-----------------|------------------------|-----------------------|

e|-----------------|-----------------|-----------------|-----------------|
B|-----------------|-----------------|-----------------|-----------------|
G|-----------------|---------------5-|-5-5-----5-5-----|-5-x-5-x-5-5-5-5-|
D|-2-2-----2-2-----|-2-x-2-x-2-2-2-5-|-5-5-x-5-5-5-x-5-|-5-x-5-x-5-5-5-5-|
A|-2-2-x-2-2-2-x-2-|-2-x-2-x-2-2-2-3-|-3-3-x-3-3-3-x-3-|-3-x-3-x-3-3-3-3-|
E|-0-0-x-0-0-0-x-0-|-0-x-0-x-0-0-0---|-----------------|-----------------|
 |
e|-/12~---12----12-14b15---|-12------12--12-----------|------------------------|-----------------------------|
B|-----------15------------|-----15----15---12--15-15\|\13--12--10-------------|---------13----/15----/17----|
G|-------------------------|--------------------------|-------------12--10--9--|-9h10h12----12-----12-----12-|
D|-------------------------|--------------------------|------------------------|-----------------------------|
A|-------------------------|--------------------------|------------------------|-----------------------------|
E|-------------------------|--------------------------|------------------------|-----------------------------|

e|-----------------|-----------------|-----------------|-----------------|
B|-----------------|-----------------|-7-x-7-7---------|-7-x-7-7-----7-6-|
G|-4-4-----4-4-----|-4-4-----4-4-----|-7-x-7-7---------|-7-x-7-7-----7-6-|
D|-5-5-----5-5-----|-5-5-----5-5-----|-7-x-7-7---------|-7-x-7-7-----7-6-|
A|-5-5-x-5-5-5-x-5-|-5-5-x-5-5-5-x-5-|-5-x-5-5---------|-5-x-5-5-----5-4-|
E|-3-3-x-3-3-3-x-3-|-3-3-x-3-3-3-x-3-|-----------------|-----------------|
 |
e|----------------------|--------------------|---------------------------|-----------------|
B|----------------------|------------------8-|-10b12-10b12-10b12p8---8h10|p8---8---8---3-2-|
G|/12-12-12-12h14-12-10-|-9-10-12-------/9---|---------------------9-----|-------9---------|
D|/12-12-12-12h14-12-10-|-9-10-12------------|---------------------------|-----------------|
A|----------------------|--------------------|---------------------------|-----------------|
E|----------------------|--------------------|---------------------------|-----------------|

e|-----------------|-----------------|-----------------|-----------------|
B|-5-x-5-5---------|-5-x-5-5---------|-5-x-5-5---------|-5-x-5-5---------|
G|-5-x-5-5---------|-5-x-5-5---------|-5-x-5-5---------|-5-x-5-5---------|
D|-5-x-5-5---------|-5-x-5-5---------|-5-x-5-5---------|-5-x-5-5---------|
A|-3-x-3-3---------|-3-x-3-3---------|-3-x-3-3---------|-3-x-3-3---------|
E|-----------------|-----------------|-----------------|-----------------|
 |
e|------------------|--------------/12-|-----------------|------------------|
B|-1---3-1-3/5-3-/6-|-5-8-6-10-8-------|-8-8-8-8-7-8-5-5-|-5-5-5---7/8-8/10-|
G|------------------|------------------|-----------------|------------------|
D|------------------|------------------|-----------------|------------------|
A|------------------|------------------|-----------------|------------------|
E|------------------|------------------|-----------------|------------------|

e|-----------------|-----------------|
B|-----------------|----------------4|
G|-4-x-4-4---------|-4-x-x-4---4-4-6-|
D|-5-x-5-5---------|-5-x-x-5---------|
A|-5-x-5-5---------|-5-x-x-5---------|
E|-3-x-3-3---------|-3-x-x-3---------|
 |
e|------------15h17p15-----------15h17|p15~-----15~---------|
B|-8-----15h17--------17p15h17p15-----|--------------------7|
G|------------------------------------|---------------7-7-9-|
D|------------------------------------|---------------------|
A|------------------------------------|---------------------|
E|------------------------------------|---------------------|


[Double Guitar Solo]

e|------------------|-----------------|-----------------|-----------------|
B|-5---4------------|----------------4|-5---4-----------|---------------5-|
G|---6---4-6/9~-----|-----------4-4-6-|---6---4-6/9~----|-----------4-6---|
D|------------------|-----------------|-----------------|-----------------|
A|------------------|-----------------|-----------------|-----------------|
E|------------------|-----------------|-----------------|-----------------|
 |
e|------------------|-----------------|-----------------|-----------------|
B|-8---7------------|----------------7|-8---7-----------|---------------8-|
G|---9---7-9/12~----|-----------7-7-9-|---9---7-9/12b14-|-r12~------7-9---|
D|------------------|-----------------|-----------------|-----------------|
A|------------------|-----------------|-----------------|-----------------|
E|------------------|-----------------|-----------------|-----------------|

e|-----------------------|-----------------|-----------------|-----------------|
B|-7b8-7b8-7b8-7b8r7-5h7-|-5---------------|-----------------|-----------------|
G|-----------------------|-----------------|-4---------------|-----------------|
D|-----------------------|-----------2-4-6-|---2-4-2-4b5-4b5-|-2~--------------|
A|-----------------------|-----------------|-----------------|-----------------|
E|-----------------------|-----------------|-----------------|-----------------|
 |
e|---------------------------------|-----------------|-----------------|-----------------|
B|-10b11-10b11-10b11-10b11r10-8h10-|-8---------------|-----------------|-----------------|
G|---------------------------------|-----------------|-7---------------|-----------------|
D|---------------------------------|-----------5-7-9-|---5-7-5-7b8-7b8-|-5~--------------|
A|---------------------------------|-----------------|-----------------|-----------------|
E|---------------------------------|-----------------|-----------------|-----------------|


[4th VERSE]

e|-----------------|-----------------|-0---------------|-----------------|
B|-----------------|-----------------|-0---------------|-----------------|
G|-----------------|-----------------|-0---------------|-----------------|
D|-----------------|-----------------|-2---------------|-----------------|
A|-----------------|-----------------|-2---------------|-----------------|
E|-----------------|-----------------|-0---------------|-----------------|
 |
e|-----------------|-----------------|-----------------|-----------------|
B|-----------------|-----------------|-----------------|-----------------|
G|-----------------|-----------------|-----------------|-----------------|
D|-----------------|-----------------|-----------------|-----------------|
A|-----------------|-----------------|-----------------|-----------------|
E|-----------------|-----------------|-----------------|-----------------|
 Now some men like the fishin' an' some men like the fowlin'

e|-0---------------|-----------------|-3---------------|-----------------|
B|-1---------------|-----------------|-3---------------|-----------------|
G|-0---------------|-----------------|-0---------------|-----------------|
D|-2---------------|-----------------|-0---------------|-----------------|
A|-3---------------|-----------------|-2---------------|-----------------|
E|-----------------|-----------------|-3---------------|-----------------|
 |
e|-----------------|-----------------|-----------------|-----------------|
B|-----------------|-----------------|-----------------|-----------------|
G|-----------------|-----------------|-----------------|-----------------|
D|-----------------|-----------------|-----------------|-----------------|
A|-----------------|-----------------|-----------------|-----------------|
E|-----------------|-----------------|-----------------|-----------------|
  Some men like to hear to hear the cannonball aroarin'

e|-3---------------|-----------------|-0---------------|-----------------|
B|-3---------------|-----------------|-0---------------|-----------------|
G|-0---------------|-----------------|-0---------------|-0-0---0---0---0-|
D|-0---------------|-----------------|-2---------------|-2---2-------2---|
A|-2---------------|-----------------|-2---------------|-2---------------|
E|-3---------------|-----------------|-0---------------|-----------------|
 |
e|-----------------|-----------------|-----------------|-----------------|
B|-----------------|-----------------|-----------------|-----------------|
G|-7----7----x-7-7-|-7-7-7-7-7-7-7---|-7/9-9-9-9-9-9-xx|-7/9-9-9-9\7-7\5-|
D|-5----5----x-5-5-|-5-5-5-5-5-5-5---|-5/7-7-7-7-7-7-xx|-5/7-7-7-7\5-5\3-|
A|-----------------|-----------------|-----------------|-----------------|
E|-----------------|-----------------|-----------------|-----------------|
  Me I like sleeping, especially in my Molly's chamber


e|-----------------|-3---0---3---0---|-3---------------|-----------------|
B|-----------1---1-|-0h1-----0h1-----|-3---------------|-----------------|
G|-----0-------0---|-----------------|-0---------------|-----------------|
D|-------0h2-------|-----------------|-0---------------|-0-0-0-0-0-0-0-0-|
A|-3---------------|-----------------|-2---------------|-2-2-2-2-2-2-2-2-|
E|-----------------|-----------------|-3---------------|-3-3-3-3-3-3-3-3-|
 |
e|-----------------|-----------------|-----------------|-----------------|
B|-----------------|-----------------|-----------------|-----------------|
G|-5---5-5-5-5-5-5-|-4/5-5-5-4/5-5-5-|-5/7-7-7-7-7-7-7-|-7-7-7-7-7-7-7-7-|
D|-3---3-3-3-3-3-3-|-2/3-3-3-2/3-3-3-|-3/5-5-5-5-5-5-5-|-5-5-5-5-5-5-5-5-|
A|-----------------|-----------------|-----------------|-5-5-5-5-5-5-5-5-|
E|-----------------|-----------------|-----------------|-----------------|
  But here I am in prison here I am with a ball an' chain, yeah


[CHORUS]

e|-5---------------|-----------------|-----------------|-----------------|
B|-7---7-7-7-7-7-7-|-7-7-7-7-6-6-5-5-|-5---5---x-x-5---|-------x-x-x-5-55|
G|-7---7-7-7-7-7-7-|-7-7-7-7-6-6-5-5-|-5---5---x-x-5---|-------x-x-x-5-55|
D|-7---7-7-7-7-7-7-|-7-7-7-7-6-6-5-5-|-5---5---x-x-5---|-------x-x-x-5-55|
A|-5---5-5-5-5-5-5-|-5-5-5-5-4-4-3-3-|-3---3---x-x-3---|-------x-x-x-3-33|
E|-----------------|-----------------|-----------------|-----------------|
 |
e|-5---5-5-5-5-5-5-|-5---5---5---5---|---------------------|-----------------|
B|-7---7-7-7-7-7-7-|-8---7---5---7---|--8------------------|-----7-8---------|
G|-7---7-7-7-7-7-7-|-7---7---7---7---|--9---------9------9-|-----------9-----|
D|-7---7-7-7-7-7-7-|-7---7---7---7---|-10------10----------|-----------------|
A|-5---5-5-5-5-5-5-|-5---5---5---5---|-10---10--------10---|-----------------|
E|-----------------|-----------------|--8------------------|-----------------|
  Musha rain dum-a-do dum-a-da        Whack for my daddy-o

e|-----------------|-----------------|-----------------|-----------------|
B|-5-------5-5-5-5-|-5-5-5-5-5-5-5-5-|-----------------|----------------4|
G|-5-------5-5-5-5-|-5-5-5-5-5-5-5-5-|-4-4-----4-4-----|-4---------4-4-6-|
D|-5-------5-5-5-5-|-5-5-5-5-5-5-5-5-|-5-5-----5-5-----|-5---------------|
A|-3-------3-3-3-3-|-3-3-3-3-3-3-3-3-|-5-5-x-5-5-5-x-5-|-5---------------|
E|-----------------|-----------------|-3-3-x-3-3-3-x-3-|-3---------------|
 |
e|------------------|-----------------|-----------------|-----------------|
B|--8---------8-----|-----7-8---------|-----------------|----------------7|
G|--9-------7---7-9-|-9---------9-----|-4-4-x-x-4-4-x-x-|-4---------7-7-9-|
D|-10---------------|-----------------|-5-5-x-x-5-5-x-x-|-5---------------|
A|-10---------------|-----------------|-5-5-x-x-5-5-x-x-|-3---------------|
E|--8---------------|-----------------|-3-3-x-x-3-3-x-x-|-3---------------|
  Whack for my daddy-o                There's whiskey in the jar-o


[INTERLUDE]

e|------------------|-----------------|-----------------|-----------------|
B|-5---4------------|----------------4|-5---4-----------|----------------5|
G|---6---4-6/9~-----|-----------4-4-6-|---6---4-6/9~----|-----------4-4-6-|
D|------------------|-----------------|-----------------|-----------------|
A|------------------|-----------------|-----------------|-----------------|
E|------------------|-----------------|-----------------|-----------------|
 |
e|-------------------|-----------------|-----------------|-----------------------|
B|-8---7-------------|----------------7|-8---7-----------|---------------------7-|
G|---9---7-9/12~-----|-12~-------7-7-9-|---9---7-9/12b14-|-r12b14r12b14r12-7-9---|
D|-------------------|-----------------|-----------------|-----------------------|
A|-------------------|-----------------|-----------------|-----------------------|
E|-------------------|-----------------|-----------------|-----------------------|
                                                         Whiskey in the jar, oh

e|------------------|-----------------|-----------------|-----------------|
B|-5---4------------|-----------------|-----------------|-----------------|
G|---6---4-6/9~-----|-----------------|-4---------------|-----------------|
D|------------------|-----------2-4-6-|---2-4-2-4b5-4b5-|-2~--------------|
A|------------------|-----------------|-----------------|-----------------|
E|------------------|-----------------|-----------------|-----------------|
 |
e|-------------------|------------------|-----------------|-----------------|
B|-8---7-------------|------------------|-----------------|-----------------|
G|---9---7-9/12~-----|-----12-----------|-7---------------|-----------------|
D|-------------------|------------5-7-9-|---5-7-5-7b8-7b8-|-5~--------------|
A|-------------------|------------------|-----------------|-----------------|
E|-------------------|------------------|-----------------|-----------------|


[OUTRO]

e|-----------------|-----------------|-----------------|-----------------|
B|-----------------|-----------------|-----------------|-----------------|
G|-----------------|-----------------|-----------------|-----------------|
D|-5-5-x-5-5-5-x-5-|-5-5-x-5-5-5-x-5-|-5-5-x-5-5-5-x-5-|-5-5-x-5-5-5-x-5-|
A|-5-5-x-5-5-5-x-5-|-5-5-x-5-5-5-x-5-|-5-5-x-5-5-5-x-5-|-5-5-x-5-5-5-x-5-|
E|-3-3-x-3-3-3-x-3-|-3-3-x-3-3-3-x-3-|-3-3-x-3-3-3-x-3-|-3-3-x-3-3-3-x-3-|
 |
e|-----------------|-------------------|-----------------|-----------|
B|-----------------|-------------------|-----------------|-----------|
G|-----------------|-------------------|-----------------|-------/7--|
D|/9-x-x-x-7-x-x-x-|-5-x-x-7h9-5-x-x-x-|-9-x-x-x-7-x-x-x-|-5-x-x-----|
A|-----------------|-------------------|-----------------|-----------|
E|-----------------|-------------------|-----------------|-----------|
 Musha rain dum-a-do dum-a-da----------------------------------------|          Musha rain dum-a-do dum-a-da


e|-----------------|-----------------|-----------------|-----------------|-----|
B|-----------------|-----------------|-----------------|-----------------|-----|
G|-----------------|-----------------|-----------------|-----------------|-4---|
D|-5-5-x-5-5-5-x-5-|-5-5-x-5-5-5-x-5-|-5-5-x-5-5-5-x-5-|-5-x-x-x-5-x-x-x-|-5---|
A|-5-5-x-5-5-5-x-5-|-5-5-x-5-5-5-x-5-|-5-5-x-5-5-5-x-5-|-5-x-x-x-5-x-x-x-|-5---|
E|-3-3-x-3-3-3-x-3-|-3-3-x-3-3-3-x-3-|-3-3-x-3-3-3-x-3-|-3-x-x-x-3-x-x-x-|-3---|
 |
e|-----------------|-------------------|-----------------|-------------------|-----|
B|-----------------|-------------------|-----------------|-------------------|-----|
G|-----------------|-------------------|-----------------|-------------------|-----|
D|/9-x-x-x-7-x-x-x-|-5-x-x-7h9-5-x-x-x-|-9-x-x-x-7-x-x-x-|-5-x-x-7h9-7---7h9-|-5~--|
A|-----------------|-------------------|-----------------|-------------------|-----|
E|-----------------|-------------------|-----------------|-------------------|-----|
 Musha rain dum-a-do dum-a-da    Musha rain dum-a-do dum-a-da


------------------------------------------------------------------------------
 27th /February /05
 Just mail me at Maitinin@gmail.com with questions, comments and corrections!
------------------------------------------------------------------------------


 " Maitinin writing here - the author of this tab.

   The past 11 years, I have generated 10,318,000 views and 815 top-rated tabs for this site.
   If you want to support an eager contributor like me, check out my own site:


   _____  http://www.PlayLikeTheGreats.com  _____


   Here I will continue to upload and improve my transcriptions.

   Best regards,
   Maitinin

   July, 2015 "


************************************
| x   Dead note
| (n) Ghost note
| h   Hammer-on
| p   Pull-off
| r   Release
| b   Bend
| br  Bend release
| pb  Pre-bend
| pbr Pre-bend release
| /   Slide up
| \   Slide down
| ~   Vibrato
************************************

https://tabs.ultimate-guitar.com/m/metallica/whiskey_in_the_jar_ver5_tab.htm