Tablature guitare : Metallica – The Unforgiven

[Intro]

Clean  -guitar 1
e||------------------------------------------|| 4x
B||--0-------0-------0-------0-------1-------||
G||.---2-------2-------2-------2-------2----.||
D||.-----2-------2-------2-------2-------2--.||
A||--0---------------------------------------||
E||------------------------------------------||

 guitar 1
e|------------------------------------------|
B|--0-------0-------0-------1-------1-------|
G|----2-------2-------2-------2-------2-----|
D|------2-------2-------2-------2-------2---|
A|--0---------------------------------------|
E|------------------------------------------|
|guitar 2 
e|------------------------------------------|
B|------------------------------------------|
G|-------------------2--4--4h5---5--4--2~~~-|
D|------------------------------------------|
A|------------------------------------------|
E|------------------------------------------|
 
 guitar 1
e|------------------------------------------|
B|--0-------0-------1-------1-------1-------|
G|----2-------2-------2-------2-------2-----|
D|------2-------2-------2-------2-------2---|
A|--0---------------------------------------|
E|------------------------------------------|
|guitar 2
e|------------------------------------------|
B|------------------------------------------|
G|--------------2--4--4h5----------5--2~~~--|
D|------------------------------------------|
A|------------------------------------------|
E|------------------------------------------|

 guitar 1
e|------------------------------------------|
B|--0-------0-------0-------1-------1-------|
G|----2-------2-------2-------2-------2-----|
D|------2-------2-------2-------2-------2---|
A|--0---------------------------------------|
E|------------------------------------------|
|guitar 2
e|------------------------------------------|
B|------------------------------------------|
G|----------2--4--4h5---------5--4--2~~~~---|
D|------------------------------------------|
A|------------------------------------------|
E|------------------------------------------|

 guitar 1
e|------------------------------------------|
B|--0-------0-------1-------1-------1-------|
G|----2-------2-------2-------2-------2-----|
D|------2-------2-------2-------2-------2---|
A|--0---------------------------------------|
E|------------------------------------------|
|guitar 2
e|------------------------------------------|
B|------------------------------------------|
G|-------------2--4--5----------5--2~~~~~---|
D|------------------------------------------|
A|------------------------------------------|
E|------------------------------------------|

 Rhythm figure 1
 guitar 1
e|----------------------------|-------------------------------|
B|--------0--1-------1-----1--|-------------------------------|
G|------2---------------------|-------0----0--------2-2h4-2~~-|
D|----2-----------2-----2-----|-----0--------2--2-2-----------|
A|--0-----------3-------------|-------------------------------|
E|----------------------------|--3-------3--------------------|
|guitar 2
e|----------------------------|-------------------------------|
B|----------------------------|-------------------------------|
G|---------2--4--4h5--4h5--5--|--5--4-----4-----2--2h4----2~~-|
D|----------------------------|--------5----2-----------------|
A|----------------------------|-------------------------------|
E|----------------------------|-------------------------------|


 guitar 1                                  end Rhythm figure 1
e|----------------------0---0-|-------------------------------|
B|-----------0--1----------1--|--1--3--0-----3----------------|
G|---------2------------------|----------------1--1--4--1-2h4-|
D|------2------------2--------|-------------------------------|
A|-----------------3----------|-------------------------------|
E|--5-------------------------|-----------3-------------------|
|guitar 2                                           
e|----------------------------|-------------------------------|
B|------------------3/5--5----|--5--3-------------------------|
G|------2--4---4h5------------|--------4~~---4\-1--/4--1--2/4-|
D|----------------------------|-------------------------------|
A|----------------------------|-------------------------------|
E|----------------------------|-------------------------------|

 Rhythm figure 2                            end Rhythm figure 2
 guitar 1
e|----------------------------|-------------------------------|
B|---------0------0-----1-----|--0-----0-----0-----0----1-----|
G|-----2-----2------2-----2---|----2-----2-----2-----2----2---|
D|-------2-----2------2-----2-|------2-----2-----2-----2----2-|
A|--0-------------------------|--0----------------------------|
E|----------------------------|-------------------------------|
|guitar 2
e|----------------------------|-------------------------------|
B|----------------------------|-------------------------------|
G|--2~~~~~~~~~~~~~~~~~~~~~~~~-|-------------------------------|
D|----------------------------|-------------------------------|
A|----------------------------|-------------------------------|
E|----------------------------|-------------------------------|

[Verse]

Note:One guitar playes the chords and the other 
     guitar plays Riff A.
    
Riff A-1  taken from Phil Boyle's tab
e||-----------------------|--------------------------|
B||-----------------------|--------------------------|
G||.----------------------|--12--12--11--11----------|
D||.-12--10--9--9h10------|---0---0---0---0--10--10--|
A||---0---0--0--0h-0--10--|-------------------0---0--|
E||--------------------0--|--------------------------|

Riff A-2 
e||-----------------------|--------------------------|
B||-----------------------|---8--8--7--7-------------|
G||.---7--5--4--4h5-------|--------------5--5--7-----|
D||.----------------5-----|--------------------------|
A||-----------------------|--------------------------|
E||-----------------------|--------------------------|

   A5          C5    E5       E   D5               A5
1:New blood joins this earth, and quickly he's subdued.
2:They dedicate their......
 
 A  A5             C5      E5           E  D5                A5
Through constant pain disgrace, the young boy learns their rules.

 A  A5             C5   E5   E  D5               A5
With time, the child draws in this whipping boy done wrong.

A  A5           C5  E5        E  D5              A5
                                                 Rhythm figure 4
e|---------------------------|--------------------|-----------------|
B|------------------------8--|--8--7--7-----------|-----------------|
G|--7--5--4--4h5-------------|------------5-------|-5-------4-------|
D|---------------5~~~--------|--------------------|---0-------0-----|
A|---------------------------|--------------------|-----0-0-----0-0-|
E|---------------------------|--------------------|-----------------|
 deprived of all his thoughts, the young man struggles on and on.

                     C5            G5
e|------------------|----------------------|-------------------------|
B|------------------|----------------------|-------------------------|
G|-2-------0--------|----------------------|-5-------4-------2-------|
D|---0-------0------|--5-------------------|---0-------0-------0-----|
A|-----0-0-----0-0--|--3---5--3--0--5------|-----0-0-----0-0-----0-0-|
E|------------------|---------------3------|-------------------------|
     He' known, oo, a vow unto his own that never from this day

                C5                 G5       E5
                              end Rhythm figure 4
e|----------------------------------------|------|
B|----------------------------------------|------|
G|--0-------------------------------------|------|
D|----0----------5------------------------|------|
A|------0-0------3--------5--3--0---5-----|--2---|
E|----------------------------------3-----|--0---|
          his will they'll take away.

[Chorus]

with Rhythm figure 1
e|------------------------------|--------------------------|
B|------------------------------|--------------------------|
G|--2--4--5~--5--------------5--|--5--4----4---------------|
D|------------------------------|--------5---\2------------|
A|------------------------------|--------------------------|
E|------------------------------|--------------------------|
 What I've felt, what I've known never shined throught in

e|---------|---------------------------|
B|---------|-----------------5---5-----|
G|-2--2h4--|-2~~---2--4--5~~-----------|
D|---------|---------------------------|
A|---------|---------------------------|
E|---------|---------------------------|
 what I've shown. Never be Never see.

e|--------------------|---------------------------|
B|-5-3----------------|---------------------------|
G|----4~~-4--/4-1-2h4-|-2~~--2-----4-----5~~~~----|
D|--------------------|---------------------------|
A|--------------------|---------------------------|
E|--------------------|---------------------------|
 Won't see what might have been. What I've felt,

e|-----|--------------------------------------------------|
B|-----|--------------------------------------------------|
G|--5--|-5-4-----4---------------------2-------2h4--------|
D|-----|-----5~~---\2-------------------------------------|
A|-----|--------------------------------------------------|
E|-----|--------------------------------------------------|
 what I've known never shined through in what I've shown.


                                             to coda
                                         with Rhythm figure 2
e|---------------------|-----------------------------   -----|
B|-------------5--5----|-3---------------------------   -----|
G|-2~-2--4-5~----------|---4~~--4\--1--/4--1--2h4----   -2~~-|
D|---------------------|-----------------------------   -----|
A|---------------------|-----------------------------   -----|
E|---------------------|-----------------------------   -----|
 Never free. Never me.         So I dub the unforgiv -  en

  ______1.__________    __________________2._______________
 /                  \  /                                   \
e|--------------------||-------------------------------------|
B|--------------------||--0-----0-----0-----0------1---------|
G|--------------------||----2-----2-----2-----2------2-------|
D|--------------------||------2-----2-----2-----2------2-----|
A|--------------------||--0----------------------------------|
E|--------------------||-------------------------------------|
 2:They dedicate...    Rhythm figure 5     end Rhythm figure 5

[Interlude]

 clean - with Rhythm figure 5
e|--------------------------------------------|
B|--------------------------------------------|
G|----4--5--7---5--4h5p4-------4--------------|
D|--7---------------------7------5--5h7~~~----|
A|--------------------------------------------|
E|--------------------------------------------|

e|--0--0--0--0--0--0--------------------------|
B|--0--1--3--5--3--1-----1h3~~~~~-------------|
G|--------------------------------------------|
D|--------------------------------------------|
A|--------------------------------------------|
E|--------------------------------------------|

e|--------------------------------------------|
B|--8/10\8---7---3h5--3-------3---------------|
G|--7/-9\7---7----------5--4----4-------------|
D|--------------------------------5~~~~-------|
A|--------------------------------------------|
E|--------------------------------------------|

e|--------------------------------------------|
B|--------------------------------------------|
G|----------------------5---------------------|
D|------------------5-----5---5h7~~~~~--------|
A|-------3/5--6--7----------------------------|
E|--3--5--------------------------------------|

e|----------------------7------7~~----10------|
B|--8--7h8p7----7-8--10---8~~----8--8----8~~~-|
G|-----------9--------------------------------|
D|--------------------------------------------|
A|--------------------------------------------|
E|--------------------------------------------|

e|-------12~----------14~----------15--17~~~~-|
B|--8/10----10--10/12----12--12/14---14-------|
G|--------------------------------------------|
D|--------------------------------------------|
A|--------------------------------------------|
E|--------------------------------------------|

 Rhythm fill 1 
 *This fill and Rhythm figure
  3 and 4 is played during guitar solo*
e|------------------------------|
B|------------------------------|
G|----------------4b5r4b5r4-----|
D|--7--7--7--2---------------2--|
A|--5--5--5--0--0------------0--|
E|------------------------------|
                               

Guitar solo- with Rhythm figure 3
e|--------------------------------------------------|
B|--7b8--7b8----------------------------------------|
G|--7b9--7b9----------------------------------------|
D|------------5--------7b9--r7--5-------------------|
A|--------------7~~~~-------------7--5\3-5-3--------|
E|-------------------------------------------5-3-5--|

e|---------------|----------------------------------|
B|---------------|------------------7---7--8--7h8---|
G|----------5~~--|-7--57--7/9---7-9---9-------------|
D|-------/7------|----------------------------------|
A|--3b5----------|----------------------------------|
E|---------------|----------------------------------|

                               
e|-------10----------8---------|
B|--{10}----{10}--10---10~~~---|
G|-----------------------------|
D|-----------------------------|
A|-----------------------------|
E|-----------------------------|
                              
 with Rhythm fill 1
e|-----10-------------------------------------|
B|--10----10~~~--20b22--20b22--20b22--r20~~~~-|
G|--------------------------------------------|
D|--------------------------------------------|
A|--------------------------------------------|
E|--------------------------------------------|

 with Rhythm figure 3
e|------------------20b23--20b23--r20--20b23r20--|
B|--20b22--r20--17-------------------------------|
G|-----------------------------------------------|
D|-----------------------------------------------|
A|-----------------------------------------------|
E|-----------------------------------------------|

e|--17--17--20p17----17----------------------|
B|----------------20-----20b22~~~------------|
G|-------------------------------------/9----|
D|---------------------------------17\-------|
A|-------------------------------------------|
E|-------------------------------------------|

e|--10p9--7--9-----7------------------------------------|
B|-------------10-----8--7---7--------------------------|
G|-------------------------9---9--7\5--7-5\4--5-4-2~~~--|
D|------------------------------------------------------|
A|------------------------------------------------------|
E|------------------------------------------------------|

e|-----------12---------12---------12---------12--------|
B|--------13----13---------13---------13---------13-----|
G|--/14------------14---------14---------14---------14--|
D|------------------------------------------------------|
A|------------------------------------------------------|
E|------------------------------------------------------|

                                         w/Rhytm figure 4
e|--12---------12---------12-------------|-----------------------|
B|-----13---------13---------13----------|-----------------------|
G|--------14---------14---------14~~~~---|--19b21--19b21r19--17--|
D|---------------------------------------|-----------------------|
A|---------------------------------------|-----------------------|
E|---------------------------------------|-----------------------|

e|-------------------17--19--20-19-17-19-17-19-17----------------|
B|--20b22--20b22~~~--------------------------------20b22---------|
G|---------------------------------------------------------------|
D|---------------------------------------------------------------|
A|---------------------------------------------------------------|
E|---------------------------------------------------------------|

e|--17-----------------------------------------------------------|
B|-----20-17--------20-17----------------------------------------|
G|-----------19b21--------19--19b21-r19p17--19b21-r19p17---------|
D|---------------------------------------------------------------|
A|---------------------------------------------------------------|
E|---------------------------------------------------------------|

                                                    D.S. al coda
e|-------------------------------------------|-------------------|
B|-----------------------20~~~~---18h20p18---|--17~~~--18-17~~~~-|
G|--19b21--19b21-r19--17---------------------|-------------------|
D|-------------------------------------------|-------------------|
A|-------------------------------------------|-------------------|
E|-------------------------------------------|-------------------|


[Coda]

e|---------------|------------------------------3--3/5~~--7------|
B|---------------|------------------3--3/5---5--3--3/5~~--3------|
G|---------------|--2--2/4--2--5----4--4/5---5-------------------|
D|---------------|-----------------------------------------------|
A|---------------|-----------------------------------------------|
E|---------------|-----------------------------------------------|
 en.      Woh.

[Outro]
 
Rhytm figure 6                      end Rhytm figure 6
e||---------------------------|-------------------------------|
B||---------------------------|-------------------------------|
G||.-2~~---2--4-4/5~~---5--5--|--5--4-------4\-1--1---2--2/4--|
D||.--------------------------|-------5~~~--------------------|
A||---------------------------|-------------------------------|
E||---------------------------|-------------------------------|
       Never free. Never me.           So I dub the unforgiv-

e|---------------------------|--------------------------------|
B|-----------------3/5----5--|--5--3---------4\-1--1--2--2/4--|
G|--2~~---2--4-4/5-----------|-------4~~~---------------------|
D|---------------------------|--------------------------------|
A|---------------------------|--------------------------------|
E|---------------------------|--------------------------------|
 en.

e|---------------------------------------|
B|---------------------------------------|
G|--2~~--2--2--4-4/5~~~-----5-----5------|
D|---------------------------------------|
A|---------------------------------------|
E|---------------------------------------|
        You labeled me.  I'll label you. 

e|----------------------------|------------------------|
B|----------------------------|----------------3/5--5--|
G|--5-4------4\-1--1--2-2/4---|--2~~~-2--4-4/5---------|
D|------5~~~------------------|------------------------|
A|----------------------------|------------------------|
E|----------------------------|------------------------|
              So I dub the unforgiven.

                 Repeat and fade
e|-------------------------------||
B|--5-3--------------------------||
G|------4~~~--4\--1--1--2--2/4--.||
D|------------------------------.||
A|-------------------------------||
E|-------------------------------||

[Verse]

They dedicate their lives to running all of his.
He tries to please them all, this bitter man he is.
Throughout his life the same, he's battled constantly.
This fight he cannot win. A tired man they see no longer cares.
The old man prepares to die regretfully.
That old man he is me.



***********************************
| h   hammer-on
| p   Pull-off
| b   Bend
| r   Bend release
| /   Slide up
| \   Slide down
| ~   Vibrato
| :   Reprise
***********************************

https://tabs.ultimate-guitar.com/m/metallica/the_unforgiven_tab.htm