Tablature guitare : Metallica – St Anger

Tuned Down
Album Version     By Danny Simcox


[Intro]
Guitar 1
Clean
d----------------------------------------------------------------|
A----------------------------------------------------------------|
F----------------------------------------------------------------|
C----------------------------------------------------------------|  x3
G----------------------------3-3-3-------------------------------|
C--0-1-2-2-0-2-1-0-2-1-0-1-1-------------------------------------|

d----------------------------------------------------------------|
A----------------------------------------------------------------|
F----------------------------------------------------------------|
C----------------------------------------------------------------|
G----------------------------------------------------------------|
C-0-1-2-2-0-2-1-0-2----------------------------------------------|

The when the drums kick in
a bit of distortion
d----------------------------------------------------------------|
A----------------------------------------------------------------|
F----------------------------------------------------------------|
C----------------------------3-3-3-------------------------------| x 8
G----1-2-2---2-1---2-1---1-1-3-3-3-------------------------------|
C--0-1-2-2-0-2-1-0-2-1-0-1-1-------------------------------------|

guitar 2
d----------------------------------------------------------------|
A----------------------------------------------------------------|
F----------------------------------------------------------------|
C----------------------------------------------------------------| x 8
G--2-1-0----2-1-0------------------------------------------------|
C--2-1-0----2-1-0------------------------------------------------|

guitar 1
lots of distortion
d----------------------------------------------------------------|
A----------------------------------------------------------------|
F----------------------------------------------------------------| x 7
C---------------------------3-3-3--------------------------------|
G---1-2-2---2-1---2-1---1-1-3-3-3--------------------------------|
C-0-1-2-2-0-2-1-0-2-1-0-1-1--------------------------------------|


[Verse]
d----------------------------------------------------------------|
A---------1---3--------3---------3-----3-------------------------|
F-----2----------------------------------------------------------|
C--0-------------------------------------------------------------|
G------------------3--------1--------1---------------------------|
C----------------------------------------------------------------|

[Chorus]
Guitar 1
hit these notes very quickly listen to the song for correct timing
d----------------------------------------------------------------|
A---15-----13------11----10--------------------------------------|
F----------------------------------------------------------------|
C----------------------------------------------------------------|
G----------------------------------------------------------------|
C----------------------------------------------------------------|
st. anger round my neck he ..........................

Guitar 2
d----------------------------------------------------------------|
A----------------------------------------------------------------|
F---7-----5-----3----2-------------------------------------------|
C---7-----5-----2----2-------------------------------------------|
G---5-----3-----1----0-------------------------------------------|
C----------------------------------------------------------------|

Fill bit
d----------------------------------------------------------------|
A----------------------------------------------------------------|
F-------------------5---3--2-------------------------------------|
C-------------------5---2--2-------------------------------------| x2
G--0----0-0--0-0----3---1--0-------------------------------------|
C--0----0-0--0-0-------------------------------------------------|
        x x  x x

2nd chorus sort of thing

d-----------------------------------------------------------------|
A-----------------------------------------------------------------|
F-------5---3---2-------------------------------------------------|
C-------5---2---2-------------------------------------------------| x 8
G--0----3---1---0-------------------------------------------------|
C--0--------------------------------------------------------------|
f*ck it all and no regrets I hit the lights on these dark sets.....


d----------------------------------------------------------------|
A----------------------------------------------------------------|
F----------------------------------------------------------------|
C----------------------------------------------------------------|
G-0---0-0---0-0---0-0---0-0--------------------------------------|
C-0---0-0---0-0---0-0---0-0--------------------------------------|
      x x   x x   x x   x x

Then the songs goes back into the distorted intro part.

d----------------------------------------------------------------|
A----------------------------------------------------------------|
F----------------------------------------------------------------|
C----------------------------3-3-3-------------------------------| x 8
G----1-2-2---2-1---2-1---1-1-3-3-3-------------------------------|
C--0-1-2-2-0-2-1-0-2-1-0-1-1-------------------------------------|

and I want my anger to be healthy....................

https://tabs.ultimate-guitar.com/m/metallica/st_anger_tab.htm