Tablature guitare : Metallica – All Nightmare Long

Band: Metallica
Song: All Nightmare Long
CD: Death Magnetic

(BTW, it's drop d tuning)

+ means palm mute
^ means harmonic
tr means tremelo pick

UPDATE: Changed intro (thx to BodaciousBob)
UPDATE: Changed Post-chorus, Verse, interlude 1, and outro(thx to Captsaw)
UPDATE: Changed Pre-chorus, Post-chorus, Interlude 1, Interlude 2 and Outro
UPDATE: made slight changes to the post-chorus
UPDATE: HUGE thanks to simo030595 with both the solos
UPDATE: made slight changes to the verse and Interlude 1

NOTE: I don’t care if the intro is bass, the song is in standard, or if you drop down a
step, this is the way I tabbed it so live with it.
NOTE: please rate/re-rate this tab highly (5 stars) because i have made some MAJOR
to it now and i think it sounds really good


[Intro]

clean
E|-------------------------------|
B|-------------------------------|
G|-------------------------------|x4
D|----0--5-6-5-----0-5--------5--|
A|------------------------------6|
D|-0------------0------3--0------|

distorted
E|--------------|
B|--------------|
G|--------------|x2
D|--------------|
A|-0----6-5--0-0|
D|-0----6-5--0-0|
            + +

E|---------------------------------------------------------------|
B|---------------------------------------------------------------|
G|---------------------------------------------------------------|
D|---------------------------------------------------------------|
A|-0----6-5--0-0-0-------0----6-5--0-0--0---0-0--0---6-5--0---6-5|
D|-0----6-5--0-0-0-------0----6-5--0-0--0---0-0--0---6-5--0---6-5|
            + + +                 + +

E|--------------------------------------|
B|--------------------------------------|
G|--------------------------------------|
D|--------------------------------------|
A|--------------------------------------|
D|000000000000000000000000002^2^3^3^4^4^|
  ++++++++++++++++++++++++++

E|-------------------------------|
B|-------------------------------|
G|-------------------------------|
D|-------------------------------|x4
A|-------------------------------|
D|-110-0-0-0-0-0-0-0-0-0-0-0-0-0-|
   +++ + + + + + + + + + + + + +


[Post-Chorus]

E|----------------------------|    |--------------------|
B|----------------------------|    |--------------------|
G|----------------------------|x7  |--------------------|
D|----------------------------|    |--------------------|
A|-----------1-1---1-1--------|    |-----------1-1---1-1|
D|-110-0-0-0-1-1-0-1-1-222-333|    |-110-0-0-0-1-1-0-1-1|
   +++ + + +     +     +++ +++       +++ + + +     +

E|--------------------|
B|--------------------|
G|--------------------|
D|--------------------|
A|--3p0--5p0--3p0--5p0|
D|--3p0--5p0--3p0--5p0|


 [Pre-Chorus+Pre-verse part 1]

E|------------------------------------------------------------|
B|------------------------------------------------------------|
G|------------------------------------------------------------|x2 1st time
D|---------------------------------------------7-7-7-5-5-/1010|x1 2nd time
A|-0--0-3-000000--0--0-3-000000--0--0-3-000000-5-5-5-3-3-/8-8-|
D|-0--0-3-000000--0--0-3-000000--0--0-3-000000----------------|
          ++++++         ++++++         ++++++


 [Pre-chorus+Pre-verse part 2]                       1st time only
E|-------------------------------------------------------------|
B|-------------------------------------------------------------|
G|-------------------------------------------------------------|
D|-2---3---6---7---10-101010-101010-101010-101012-121212121212-|
A|-0---1---4---5---8--8-8-8--8-8-8--8-8-8--8-8-10-101010101010-|
D|-------------------------------------------------------------|
                      + + +  + + +  + + +  + + +

 rest of the time
E|-----------------------------------|
B|-----------------------------------|
G|-----------------------------------|
D|-2---3---6---7---1010101010101010--|
A|-0---1---4---5---8-8-8-8-8-8-8-8---|
D|-----------------------------------|


 [Verse]

E|-----------------------------------------------------------|
B|-----------------------------------------------------------|
G|-----------------------------------------------------------|
D|-9tr----------------------------------2--------------------|
A|------8tr-7tr-5tr-2tr-----------2-3-5---5-3-3h5p3-2--------|
D|----------------------3333-2tr----------------------2tr----|
                                  + + +   + + +     +

E|-------------------------------------------------------------|
B|-------------------------------------------------------------|
G|-------------------------------------------------------------|
D|-------2-------------4---------5---------4---------5---------|
A|-2-3-5---5-3-3h5p3---2let ring-3let ring-2let ring-3let ring-|
D|-------------------------------------------------------------|
   + + +   + + +

E|---------------------------------------------------------------------|
B|---------------------------------------------------------------------|
G|---------------------------------------------------------------------|
D|-4--------4--------4--------4----------------------------------------|
A|-2--2--3--2--2--3--2--2--3--2--2--3--5-5-5-5-5-0-0-0-5-5-5-5-5-0-0-0-|
D|----2--3-----2--3-----2--3-----2--3--5-5-5-5-5-0-0-0-5-5-5-5-5-0-0-0-|
                                       +++++++++++++++++++++++++++++++

[Chorus]

E|----------------------------------------------------------------|
B|----------------------------------------------------------------|
G|----------------------------------------------------------------|x4
D|------1010-9-9\7------1010-9-9\7------1010-9-9\7----------------|
A|-0-0--8-8--7-7\5-0-0--8-8--7-7\5-0-0--8-8--7-7\5-5-5-5-3-3-3-3\2|
D|-0-0-------------0-0-------------0-0-------------5-5-5-3-3-3-3\2|

E|-------|
B|-------|
G|-------|
D|-1-1-1-|
A|-1-1-1-|
D|-1-1-1-|


 [Interlude 1]
                                        repeat section x8
E|-------------------------------------|------------------------------|
B|-------------------------------------|------------------------------|
G|-------------------------------------|------------------------------|
D|-------------------------------------|---0-8-7--0-7-3--0-3-2--0-2-0-|
A|-7p0003p0005p0002p000-0----3p0005p000|------------------------------|
D|-7p0003p0005p0002p000-0----3p0005p000|-0----------------------------|
   ++++++++++++++++++++      ++++++++++


[Solo 1]

E|--------------------------------------------------------------------------------------------|
B|--------------------------------------------------------------------------------------------|
G|--------------------------------------------------------------------------------------------|
D|--12-12-12-12-12-12-12-12-12-12-12-12-12-12-0-0-12-12-12-12-0-0-12-12-0-0-------------------|
A|--------------------------------------------------------------------------------------------|
D|--------------------------------------------------------------------------------------------|

E|--------------------------------------------------------------------------------------------|
B|--------------------------------------------------------------------------------------------|
G|--------------------------------------------------------------------------------------------|
D|--12-12-12-12-0-0-12-12-12-12-0-0-12-12-0-0-12-0-11-0-10-0-9-0-8-0-7-0-6-0-5----------------|
A|--------------------------------------------------------------------------------------------|
D|--------------------------------------------------------------------------------------------|

E|-----------------------------|---------------------------------------------------------------|
B|o----------------------5----o|---------------------------------------------------------------|
G|-----------------------5-----|---------------------------------------------------------------|
D|---7--5--7--5--7--5--7-------|---7--5--7--5--7---(7)-----------------------------------------|
A|o---------------------------o|---------------------------------------------------------------|
D|-----------------------------|---------------------------------------------------------------|

E---------------------------------------------------|
B|--------------------------------------------------|
G|--4--2-----2--4--2--4--2-----2--4--2--4--2-----2--|
D|--------4-----------------4-----------------4-----|
A|--------------------------------------------------|
D|--------------------------------------------------|

E|---------------------------------------------------------------------------------------------|
B|-----------0--5--2--0--6--2--0--7--2--0--8--2--0--0--9--6--0--0--9--5--0--0--9--9--0--0------|
G|--4--2--4------------------------------------------------------------------------------------|
D|---------------------------------------------------------------------------------------------|
A|---------------------------------------------------------------------------------------------|
D|---------------------------------------------------------------------------------------------|

E|--------------------------------------------------------------------------------------------|
B|--9--9--0--0-12--9--0-15-12--0--0-16-13--0--0-17-14--0--0-18-15--0--0-19-16--0--0-20-17-----|
G|--------------------------------------------------------------------------------------------|
D|--------------------------------------------------------------------------------------------|
A|--------------------------------------------------------------------------------------------|
D|--------------------------------------------------------------------------------------------|

e|--------------------------------------------------------------------------------------------|
B|--0--0-21-18--0--0-22--0-22-19--0-22-19--0-22-19--0-22-19--0-22-19--0-22-19-0--22/--(22/)---|
G|--------------------------------------------------------------------------------------------|
D|--------------------------------------------------------------------------------------------|
A|--------------------------------------------------------------------------------------------|
D|--------------------------------------------------------------------------------------------|


[Interlude 2]

                     Repeat x2
E|------------------------------|
B|------------------------------|
G|------------------------------|
D|-7-8-7-----7-8-7--------------|
A|-------8---------8-5----------|
D|-0-0-0-0-0-0-0-0-0-0-0-0-0-0-0|
           +           + + + + +

e|-----------------------------------------------|
B|-----------------------------------------------|
G|-----------------------------------------------|repeat whole Interlude x2
D|-7-8-7----7--7-7-8-7---6--6-6-7-6--2--2-2-3-2--|
A|-------8--7--7-7-8-7---6--6-6-7-6--2--2-2-3-2--|
D|-0-0-0-0--7--7-7-8-7---6--6-6-7-6--2--2-2-3-2--|


 [Pre-solo]

E|---------------------------------------------------------------|
B|---------------------------------------------------------------|
G|---------------------------------------------------------------|
D|---------------------------------------------------------------|
A|---------------------------------------------------------------|
D|-00000000000000000000000000000000222222222222222222222222222222|
   ++++++++++++++++++++++++++++++++++++++++++++++++++++++++++++++


[Solo 2] (with wah)

E|--------------------------------------------------------------------------------------------|
B|--------------------------------------------------------------------------------------------|
G|--3--2-----3--2-----3--2-----3--2-----3--2-----3--2-----------------------------------------|
D|--------2--------2--------2--------2--------2--------2--------------------------------------|
A|--------------------------------------------------------------------------------------------|
D|--------------------------------------------------------------------------------------------|

E|--------------------------------------------------------------------------------------------|
B|--------------------------------------------------------------------------------------------|
G|--3--2-----3--2-----3--2-----3--2-----3--2-----3--2-----------------------------------------|
D|--------3--------3--------3--------3--------3--------3--------------------------------------|
A|--------------------------------------------------------------------------------------------|
D|--------------------------------------------------------------------------------------------|

E|--------------------------------------------------|------------------------------------------|
B|--------------------------------------------------|------------------------------------------|
G|--5--3--0--0--5--3--0--0--5--3--0--0--5--3--0--0--|-----3--2-----3--2-----3--2---------------|
D|--------------------------------------------------|-----------2--------2--------2--2---------|
A|--------------------------------------------------|------------------------------------------|
D|--------------------------------------------------|------------------------------------------|

E|--------------------------------------------------------------------------------------------|
B|--------------------------------------------------------------------------------------------|
G|--3--2--------3--2--------3--2--------3--2--------------------------------------------------|
D|--------2--2--------2--2--------2--2--------2--2--------------------------------------------|
A|--------------------------------------------------------------------------------------------|
D|--------------------------------------------------------------------------------------------|

x2
E|--------------------------------------------------------------------------------------------|
B|--------------------------------------------------------------------------------------------|
G|--3--2--------3--2--------3--2--------3--2--------------------------------------------------|
D|--------3--3--------3--3--------3--3--------3--3--------------------------------------------|
A|--------------------------------------------------------------------------------------------|
D|--------------------------------------------------------------------------------------------|

x2
E|--------------------------------------------------------------------------------------------|
B|--------------------------------------------------------------------------------------------|
G|--5--3--0--0--5--3--0--0--5--3--0--0--5--3--0--0--------------------------------------------|
D|--------------------------------------------------------------------------------------------|
A|--------------------------------------------------------------------------------------------|
D|--------------------------------------------------------------------------------------------|

x2
E|--------------------------------------------------------------------------------------------|
B|--------------------------------------------------------------------------------------------|
G|--------------------------------------------------------------------------------------------|
D|--5--3--0--0--5--3--0--0--5--3--0--0--5--3--0--0--------------------------------------------|
A|--------------------------------------------------------------------------------------------|
D|--------------------------------------------------------------------------------------------|

e|------------------------------------------------------------12-10----12-14--15tr-19tr--24\--|
B|-10--8-----8--10--8--10--8-----8--10--8--10--8-----8--10/12-------12------------------------|
G|--------9-------------------9-------------------9-------------------------------------------|
D|--------------------------------------------------------------------------------------------|
A|--------------------------------------------------------------------------------------------|

 [Bridge]                          repeat this section x3
E|---------------------|---------------------------------------|
B|---------------------|---------------------------------------|
G|---------------------|---------------------------------------|
D|---------------------|-----------------------10-9--8--7--8--9|
A|---------------------|-----------------------8--7--6--5--6--7|
D|-00000000000000000000|0000000000000000000000-----------------|
  +++++++++++++++++++++++++++++++++++++++++++

                                   repeat this section x6 (don’t last note on
E|-----------------------------|------------------| sixth repeat
B|-----------------------------|------------------|
G|-----------------------------|------------------|
D|-7--6--5--4--5---------------|-------------3-2-1|
A|-5--4--3--2--3---------------|-------------3-2-1|
D|---------------00000000000000|00000000000003-2-1|
                 ++++++++++++++++++++++++++++


 [Outro]

first repeat clean part of intro with distortion and wah, then this
E|----------------------------------------|
B|----------------------------------------|
G|----------------------------------------|x2
D|----------------------------------------|
A|-3p0-5p0-3p0-5p0-0-0-3p0-5p0-3p0-3p0-0-0|
D|-3p0-5p0-3p0-5p0-0-0-3p0-5p0-3p0-5p0-0-0|

E|--------------|
B|--------------|
G|--------------|
D|-----------5--|x4
A|-0--0-3------6|
D|-0--0-3--0----|

E|--------------------------|
B|--------------------------|
G|--------------------------|
D|---0-5-6-5let-ring---0-5-0|
A|-------------------------0|
D|-0-----------------0-----0|
                    +
Order of song:
1.Intro
2.Post-chorus
3.Pre-chorus+pre-verse parts 1 and 2
4.Verse
5.Pre-chorus part 2
6.Pre-chorus part 1
7.Pre-chorus part 2
8.Chorus
9.Post-chorus
10.Pre-verse parts 1 and 2
11.Pre-chorus part 2
12.Pre-chorus part 1
13.Pre-chorus part 2
14.Interlude 1
15.Solo 1
16.Interlude 2
17.Solo 2
18.Bridge
19.Chorus
20.Pre-verse part 1
21.Outro


************************************

| x    Dead note
| (n)  Ghost note
| h    Hammer-on
| p    Pull-off
| /    Slide up
| \    Slide down

************************************

I don't think that octave d is there in the last part of the intro. To me it sounds like this:
e|--------------------------------|
b|--------------------------------|
g|--------------------------------|x4
d|----0--5-6-5-----0-5---------5--|
a|-------------------------------6|
D|-0------------0------3--0-------|

Needs solos.

Good tab other than that.

Source 1 : https://tabs.ultimate-guitar.com/m/metallica/all_nightmare_long_tab.htm

Tuning
D A D G B E
[Intro]

Gtr. 1 Clean
e|-----------------|---------------------|
B|-----------------|---------------------|
G|-------^^^^^^----|---------------------|
D|-----5-6-----5---|-----5---------5-----| Rhy Fig 1
A|---5-------------|---5---^^^^^^----6---|
D|-0---------------|-0-----3-----0-------|

Gtr. 2 Dist. w/ Rhy Fig 1 five times
e|---------------|--------------|---------------|-------------|
B|---------------|--------------|---------------|-------------|
G|---------------|--------------|---------------|-------------|
D|--0---6----5---|-0-0----------|--0---6----5---|-0-0---------|
A|--0---6----5---|-0-0----------|--0---6----5---|-0-0---------|
D|--0---6----5---|-0-0----------|--0---6----5---|-0-0---------|
                   x x                            x x

e|---------------|--------------|---------------|-------------|
B|---------------|--------------|---------------|-------------|
G|---------------|--------------|---------------|-------------|
D|--0---6----5---|-0-0-0--------|--0---6----5---|-0-0---0-----|
A|--0---6----5---|-0-0-0--------|--0---6----5---|-0-0---0-----|
D|--0---6----5---|-0-0-0--------|--0---6----5---|-0-0---0-----|
                   x x x                          x x

e|---------------|--------------|---------------|
B|---------------|--------------|---------------|
G|---------------|--------------|---------------|
D|-0-0---0-------|-6-5---0------|-6-5-----------|
A|-0-0---0-------|-6-5---0------|-6-5-----------|
D|-0-0---0-------|-6-5---0------|-6-5-----------|
   x x

Both Gtrs Dist.
e|-------------------------------------------------------------------|
B|-------------------------------------------------------------------|
G|-------------------------------------------------------------------|
D|-------------------------------------------------------------------|
A|-------------------------------------------------------------------|
D|-0-0-0-0-0-0-0-0-0-0-0-0-0-0-0-0-|-0-0-0-0-0-0-0-0-0-0-0-0-0-0-0-0-|
   x x x x x x x x x x x x x x x x   x x x x x x x x x x x x x x x x

  Gtr. 1
e|---------------------------------|----------------------|
B|---------------------------------|----------------------|
G|---------------------------------|----------------------| 
D|---------------------------------|----------------------|
A|---------------------------------|--+++++++++++---------|
D|-0-0-0-0-0-0-0-0-0-0-0-0-0-0-0-0-|-2-----------12--12\--|
 | x x x x x x x x x x x x x x x x   # Harm Slide
 |
 |Gtr 2
e|---------------------------------|----------------------|
B|---------------------------------|----------------------|
G|---------------------------------|----------------------|
D|---------------------------------|----------------------|
A|---------------------------------|---++++++++++---------|
D|-0-0-0-0-0-0-0-0-0-0-0-0-0-0-0-0-|-12----------2----0---|
   x x x x x x x x x x x x x x x x   # Harm Slide

  Both Gtrs
e|--------------------------|------------------------|
B|--------------------------|------------------------|
G|--------------------------|------------------------|
D|--------------------------|------------------------| Play 4 times
A|--------------------------|------------------------|
D|-2-1-0--0--0--0--0--0--0--|-0--0--0--0--0--0--0--0-|
   x x x  x  x  x  x  x  x    x  x  x  x  x  x  x  x

e|--------------------------|---------------------------|
B|--------------------------|---------------------------|
G|--------------------------|---------------------------|
D|-----------------1--1-----|----1--1-------------------| play 5 times
A|-----------------1--1-----|----1--1-------------------|
D|-2-1-0--0--0--0--1--1--0--|-0--1--1--0--2-2-2--3-3-3--|
   x x x  x  x  x        x    x        x  x x x  x x x

e|--------------------------|-----------------|------------------------|
B|--------------------------|-----------------|------------------------|
G|--------------------------|-----------------|------------------------|
D|-----------------1--1-----|----1--1---------|-3-----5-----3-----5----|
A|-----------------1--1-----|----1--1---------|-3-----5-----3-----5----|
D|-2-1-0--0--0--0--1--1--0--|-0--1--1---------|-3--0--5--0--3--0--5--0-|
   x x x  x  x  x        x    x                    x     x     x     x

e| --------------------------|--------------------------|
B|X--------------------------|--------------------------|
G| --------------------------|--------------------------|
D| ---------3----------------|---------3----------------|
A|X-3h5--5--3----------------|-3h5--5--3----------------|
E| ---0--0--3----0-0-0-0-0-0-|---0--0--3----0-0-0-0-0-0-|
                 x x x x x x                x x x x x x

e|--------------------------|----------------------- |
B|--------------------------|-----------------------X|
G|--------------------------|----------------------- | (repeat)
D|---------3----------------|-7--7---5--5/10--10\--- |
A|-3h5--5--3----------------|-5--5---3--3/8---8-\---X|
D|---0--0--3----0-0-0-0-0-0-|----------------------- |
                x x x x x x

e|-------------|-------------|--------------------------------|
B|-------------|-------------|--------------------------------|
G|-------------|-6-----7-----|--------------------------------|
D|-7-----8-----|-6-----7-----|--------------------------------|
A|-7-----8-----|-4-----5-----|-8--8-8--8--8-8--8--8-8--8--8-8-|
D|-7-----8-----|-------------|--------------------------------|
                               x  x x  x  x x  x  x x  x  x x

e|-------------------------|
B|-------------------------|
G|-------------------------|
D|-------------------------|
A|-10-10-10-10-10-10-10-10-|
D|-------------------------|

 Rhy Fig 2
e|--------------------------|--------------------------|
B|--------------------------|--------------------------|
G|--------------------------|--------------------------|
D|---------3----------------|---------3----------------|
A|-3h5--5--3----------------|-3h5--5--3----------------|
D|---0--0--3----0-0-0-0-0-0-|---0--0--3----0-0-0-0-0-0-|
                 x x x x x x                x x x x x x

e|--------------------------|-----------------------|
B|--------------------------|-----------------------|
G|--------------------------|-----------------------|
D|---------3----------------|-7--7---5--5/10--10\---|
A|-3h5--5--3----------------|-5--5---3--3/8---8-\---|
D|---0--0--3----0-0-0-0-0-0-|-----------------------|
                x x x x x x
                                           End Rhy Fig 2
e|-------------|-------------|-------------------------|
B|-------------|-------------|-------------------------|
G|-------------|-6-----7-----|-----------------10------|
D|-7-----8-----|-6-----7-----|-----------------10------|
A|-7-----8-----|-4-----5-----|-8-8-8-8-8-8-8-8-8-------|
D|-7-----8-----|-------------|-------------------------|
                               x x x x x x x x

[Verse]

 Gtr 1
e|---------------------------------|---------------------------------|
B|---------------------------------|---------------------------------|
G|---------------------------------|---------------------------------|
D|---------------------------------|---------------------------------|
A|---------------------------------|---------------------------------|
D|-2-2-2-2-2-2-2-2-2-2-2-2-2-2-2-2-|-2-2-2-2-2-2-2-2-2-2-2-2-2-2-2-2-|
 | x x x x x x x x x x x x x x x x   x x x x x x x x x x x x x x x x
 |Gtr 2
e|---------------------------------|---------------------------------|
B|---------------------------------|---------------------------------|
G|---------------------------------|---------------------------------|
D|-9-9-9-9-9-9---------------------|---------------------------------|
A|-------------8-8-8-8-8-8-7-7-7-7-|-5-5-5-5-5-5-2-2-2-2-2-2---------|
D|---------------------------------|-------------------------3-3-3-3-|

 Both Gts
e|---------------------------------|---------------------------|
B|---------------------------------|---------------------------|
G|---------------------------------|---------------------------|
D|---------------------------------|----------2----------------|
A|---------------------------------|-2--3--5-----5--3--2h3p2p0-|
D|-2-2-2-2-2-2-2-2-2-2-2-2-2-2-2-2-|---------------------------|
   x x x x x x x x x x x x x x x x   x  x  x  x  x  x

e|---------------------------------|---------------------------------|
B|---------------------------------|---------------------------------|
G|---------------------------------|---------------------------------|
D|---------------------------------|---------------------------------|
A|---------------------------------|---------------------------------|
D|-2-2-2-2-2-2-2-2-2-2-2-2-2-2-2-2-|-2-2-2-2-2-2-2-2-2-2-2-2-2-2-2-2-|
 | x x x x x x x x x x x x x x x x   x x x x x x x x x x x x x x x x

e|---------------------------------|---------------------------|
B|---------------------------------|---------------------------|
G|---------------------------------|---------------------------|
D|---------------------------------|----------2----------------|
A|---------------------------------|-2--3--5-----5--3--2h3p2p0-|
D|-2-2-2-2-2-2-2-2-2-2-2-2-2-2-2-2-|---------------------------|
   x x x x x x x x x x x x x x x x   x  x  x  x  x  x


[Verse]

 Gtr 1
e|---------------------------------|---------------------------------|
B|---------------------------------|---------------------------------|
G|-4-------------------------------|(4)----------------------4-------|
D|-X-------------------------------|(X)----------------------X-------|
A|-2-------------------------------|(2)----------------------2-------|
D|---------------------------------|---------------------------------|
 |
 |Gtr 2
e|---------------------------------|---------------------------------|
B|---------------------------------|---------------------------------|
G|-4-4-4-4-4-4-4-4-4-4-4-4-4-4-4-4-|-4-4-4-4-4-4-4-4-4-4-4-4-4-4-4-4-|
D|-X-X-X-X-X-X-X-X-X-X-X-X-X-X-X-X-|-X-X-X-X-X-X-X-X-X-X-X-X-X-X-X-X-|
A|-2-2-2-2-2-2-2-2-2-2-2-2-2-2-2-2-|-2-2-2-2-2-2-2-2-2-2-2-2-2-2-2-2-|
D|---------------------------------|---------------------------------|


e|---------------------------------|---------------------------------|
B|---------------------------------|---------------------------------|
G|-5-------------------------------|(5)------------------------------|
D|-X-------------------------------|(X)------------------------------|
A|-3-------------------------------|(3)------------------------------|
D|---------------------------------|---------------------------------|
 |
e|---------------------------------|---------------------------------|
B|---------------------------------|---------------------------------|
G|---------------------------------|---------------------------------|
D|-3-3-3-3-3-3-3-3-3-3-3-3-3-3-3-3-|-3-3-3-3-3-3-3-3-3-3-3-3-3-3-3-3-|
A|-X-X-X-X-X-X-X-X-X-X-X-X-X-X-X-X-|-X-X-X-X-X-X-X-X-X-X-X-X-X-X-X-X-|
D|-3-3-3-3-3-3-3-3-3-3-3-3-3-3-3-3-|-3-3-3-3-3-3-3-3-3-3-3-3-3-3-3-3-|



e|---------------------------------|---------------------------------|
B|---------------------------------|---------------------------------|
G|-4-------------------------------|(4)------------------------------|
D|-X-------------------------------|(X)------------------------------|
A|-2-------------------------------|(2)------------------------------|
D|---------------------------------|---------------------------------|
 |
e|---------------------------------|---------------------------------|
B|---------------------------------|---------------------------------|
G|-4-4-4-4-4-4-4-4-4-4-4-4-4-4-4-4-|---------------------------------|
D|-X-X-X-X-X-X-X-X-X-X-X-X-X-X-X-X-|-2-2-2-2-2-2-2-2-2-2-2-2-2-2-2-2-|
A|-2-2-2-2-2-2-2-2-2-2-2-2-2-2-2-2-|-X-X-X-X-X-X-X-X-X-X-X-X-X-X-X-X-|
D|---------------------------------|-2-2-2-2-2-2-2-2-2-2-2-2-2-2-2-2-|


e|---------------------------------|---------------------------------|
B|---------------------------------|---------------------------------|
G|-4-------------------------------|-5-------------------------------|
D|-X-------------------------------|-X-------------------------------|
A|-2-------------------------------|-3-------------------------------|
D|---------------------------------|---------------------------------|
 |
e|---------------------------------|---------------------------------|
B|---------------------------------|---------------------------------|
G|-4-4-4-4-4-4-4-4-4-4-4-4-4-4-4-4-|---------------------------------|
D|-X-X-X-X-X-X-X-X-X-X-X-X-X-X-X-X-|-3-3-3-3-3-3-3-3-3-3-3-3-3-3-3-3-|
A|-2-2-2-2-2-2-2-2-2-2-2-2-2-2-2-2-|-X-X-X-X-X-X-X-X-X-X-X-X-X-X-X-X-|
D|---------------------------------|-3-3-3-3-3-3-3-3-3-3-3-3-3-3-3-3-|

 Both Gtrs.
e|-----------------|-----------------|-----------------|------------------|
B|-----------------|-----------------|-----------------|------------------|
G|-4---------------|-4---------------|-4---------------|-4----------------|
D|-4-----2-----3---|-4-----2-----3---|-4-----2-----3---|-4-----2-----3----|
A|-2-----2-----3---|-2-----2-----3---|-2-----2-----3---|-2-----2-----3----|
D|-------2-----3---|-------2-----3---|-------2-----3---|-------2-----3----|

e|------------------------|------------------------|
B|------------------------|------------------------|
G|------------------------|------------------------|
D|-2--2--2--2--2--0--0--0-|-2--2--2--2--2--0--0--0-|
A|-2--2--2--2--2--0--0--0-|-2--2--2--2--2--0--0--0-|
D|-2--2--2--2--2--0--0--0-|-2--2--2--2--2--0--0--0-|
   x  x  x  x  x  x  x  x   x  x  x  x  x  x  x  x

e|----------------|----------------|-----------------------------|
B|----------------|----------------|-----------------------------|
G|----------------|-6------7-------|-----------------10----------|
D|-7------8-------|-6------7-------|-----------------10----------|
A|-7------8-------|-4------5-------|-8-8-8-8-8-8-8-8-8-----------|
D|-7------8-------|----------------|-----------------------------|
                                     x x x x x x x x 


Play Rhy Fig 2, both gtrs.



[Chorus]

 Both Gtrs.
e| -----------------------|-----------------------|
B|X-----------------------|-----------------------|
G| -7--7----10-10-9--9--7-|-7--7----10-10-9--9--7-|
D| -X--X----X--X--X--X--X-|-X--X----X--X--X--X--X-|
A|X-5--5----8--8--7--7--5-|-5--5----8--8--7--7--5-|
E| -0--0----0--0--0--0--0-|-0--0----0--0--0--0--0-|

e|-----------------------|---------------------- |
B|-----------------------|----------------------X|
G|-7--7----10-10-9--9--7-|---------------------- | Play 4 times
D|-X--X----X--X--X--X--X-|-5--5----5--5--2--2--- |
A|-5--5----8--8--7--7--5-|-3--3----2--2--0--0---X|
D|-0--0----0--0--0--0--0-|---------------------- |

e|--------------------|
B|--------------------|
G|-3----3----3--------|
D|-3----3----3--------| (End Chorus)
A|-1----1----1--------|
D|-1----1----1--------|

e|--------------------------|---------------------------|
B|--------------------------|---------------------------|
G|--------------------------|---------------------------|
D|-----------------1--1-----|----1--1-------------------| play 3 times
A|-----------------1--1-----|----1--1-------------------|
D|-2-1-0--0--0--0--1--1--0--|-0--1--1--0--2-2-2--3-3-3--|
   x x x  x  x  x        x    x        x  x x x  x x x

e|--------------------------|-----------------|------------------------|
B|--------------------------|-----------------|------------------------|
G|--------------------------|-----------------|------------------------|
D|-----------------1--1-----|----1--1---------|-3-----5-----3-----5----|
A|-----------------1--1-----|----1--1---------|-3-----5-----3-----5----|
D|-2-1-0--0--0--0--1--1--0--|-0--1--1---------|-3--0--5--0--3--0--5--0-|
   x x x  x  x  x        x    x                    x     x     x     x

e| --------------------------|--------------------------|
B|X--------------------------|--------------------------|
G| --------------------------|--------------------------|
D| ---------3----------------|---------3----------------|
A|X-3h5--5--3----------------|-3h5--5--3----------------|
E| ---0--0--3----0-0-0-0-0-0-|---0--0--3----0-0-0-0-0-0-|
                 x x x x x x                x x x x x x

e|--------------------------|----------------------- |
B|--------------------------|-----------------------X|
G|--------------------------|----------------------- |
D|---------3----------------|-7--7---5--5/10--10\--- |  Repeat
A|-3h5--5--3----------------|-5--5---3--3/8---8-\---X|
D|---0--0--3----0-0-0-0-0-0-|----------------------- |
                x x x x x x

e|-------------|-------------|-------------------------|
B|-------------|-------------|-------------------------|
G|-------------|-6-----7-----|-----------------10------|
D|-7-----8-----|-6-----7-----|-----------------10------|
A|-7-----8-----|-4-----5-----|-8-8-8-8-8-8-8-8-8-------|
D|-7-----8-----|-------------|-------------------------|
                               x x x x x x x x


Play Pre Verse


Play Verse


Play Chorus


[Solo]

 Both Gtrs.
e|---------------------------------|-------------|
B|---------------------------------|-------------|
G|---------------------------------|-------------|
D|---------------------------------|-0-----------|
A|---------------------------------|-0-----------|
D|-7-7-7-7-3-3-3-3-5-5-5-5-1-1-1-1-|-0-----------|
   x x x x x x x x x x x x x x x x

 Gtr 1
e| ------------------------|---------------------- |
B|X------------------------|----------------------X|
G| ------------------------|---------------------- | play 3 times
D| ------------7--(7)\-----|---------------------- |
A|X------------7--(7)\-----|----------------------X|
E| -0-0-0-0-0--7--(7)\-----|---------------------- |
 |  x x x x x
 |Gtr 2 w/ wah
e| ------------------------|---------------------- |
B|X------------------------|----------------------X|
G| ------------------------|---------------------- | Play 3 times
D| -7-----8--7-------7-----|------5--------------- |
A|X----5----------5-----8--|---7-----8----7--6--5-X|
E| ------------------------|---------------------- |


e|------------------------|----------------------|
B|------------------------|----------------------|
G|------------------------|----------------------|
D|------------7--(7)\-----|--------------3--2--1-|
A|------------7--(7)\-----|--------------3--2--1-|
D|-0-0-0-0-0--7--(7)\-----|--------------3--2--1-| 
 | x x x x x                             x  x  x
 |
e|------------------------|----------------------|
B|------------------------|----------------------|
G|------------------------|----------------------|
D|-7-----8--7-------7-----|------5---------------|
A|----5----------5-----8--|---7-----8----7--6--5-|
D|------------------------|----------------------|

 Rhy Fig 3                                         End Rhy Fig 3
e|------------------------|-------------------------|
B|------------------------|-------------------------|
G|------------------------|-------------------------|
D|------------7----7--7---|------------3----3--2--1-| play 4 times
A|------------7----7--7---|------------3----3--2--1-|
D|-0-0-0-0-0--7----7--7---|-3-3-3-3-3--3----3--2--1-| 
 | x x x x x                x x x x x 
 |
e|------------------------|-------------------------|
B|------------------------|-------------------------|
G|------------------------|-------------------------|
D|-7-----8--7-------7-----|------5------------------| Play 4 times
A|----5----------5-----8--|---7-----8-------7--6--5-|
D|------------------------|-------------------------|


[Solo]

w/ Rhy Fig 3 (Gtr 1 four times)
 Gtr 2 NO wah
e|----------------|----------------------|----------------------|
B|----------------|----------------------|----------------------|
G|----------------|----------------------|----------------------|
D|-/12----------0-|-/12---0/12---0/12--0-|-/12---0/12---0/12--0-|
A|--#-------------|--#------#------#-----|--#------#------#-----|
D|--#-------------|--#------#------#-----|--#------#------#-----|

e|-----------------------|-----------------------|-------------------------|
B|-----------------------|--------------------5--|--------------------5----|
G|-----------------------|--------------------5--|--------------------5----|
D|-12\11\10\9\8\7--0--5--|-7p5-7p5-7--p5-7p5-----|-7p5-7p5-7--p5-7p5-------|
A|-#--#--#--#-#-#--------|-----------------------|-------------------------|
D|-#--#--#--#-#-#--------|-----------------------|-------------------------|

e|-------------------------|-----------------------|
B|--------------------5----|----------------5----0-|
G|--------------------5----|----------------5/14\0-|
D|-7p5-7p5-7--p5-7p5-------|-7p5--7p5--7-----------|
A|-------------------------|-----------------------|
D|-------------------------|-----------------------|

 Gtr 1
e|----------------------------------------|
B|----------------------------------------|
G|---------------4------------------------|
D|-2-------------4------------------------|
A|-2-------------2------------------------|
D|-2----------0---------------------------|
 |            x                         
 |Gtr 2
e|----------------------------------------|
B|----------------------------------------|
G|-4p2p0-------4p2p0-----4p2p0-4p2p0------|
D|------4p2p0-------4p2p0-----------4p2p0-|
A|----------------------------------------|
D|----------------------------------------|


 Gtr 1
e|--------------------------------------------|
B|--------------------------------------------|
G|-3------------------------------------------|
D|-3---------------3--------------------------|
A|-1---------------3--------------------------|
D|-----------0-----3--------------------------|
 |           x
 |Gtr 2
e|--------------------------------------------|
B|--------------------------------------------|
G|-4p2p0-----4p2p0-4p2p0-----4p2p0-4p2p0------|
D|------4p2p0-----------4p2p0-----------4p2p0-|
A|--------------------------------------------|
D|--------------------------------------------|


e|------------------------------------------|
B|------------------------------------------|
G|----------------4-------------------------|
D|-2--------------4-------------------------|
A|-2--------------2-------------------------|
D|-2---------0------------------------------|
 |           x                              
e|------------------------------------------|
B|------------------------------------------|
G|-4p2p0-----4p2p0-----4p2p0-----4p2p0------|
D|------4p2p0-----4p2p0-----4p2p0-----4p2p0-|
A|------------------------------------------|
D|------------------------------------------|


e|---------------------------------------|
B|---------------------------------------|
G|-3-------------------------------------|
D|-3--------------3---------2----1----0--|
A|-1--------------3---------2----1----0--|
D|-----------0----3---------2----1----0--|
 |           x              x    x    x
e|---------------------------------------|
B|---------------------------------------|
G|-4p2p0-----4p2p0-----4p2p0-----4p2p0---|
D|------4p2p0-----4p2p0-----4p2p0-----4--|
A|---------------------------------------|
D|---------------------------------------|


e|--------------------------------------------|
B|--------------------------------------------|
G|----------------4---------------------------|
D|-2--------------4---------------------------|
A|-2--------------2---------------------------|
D|-2---------0--------------------------------|
 |           x                                 
e|--------------------------------------------|
B|--------------------------------------------|
G|-4p2p0-----4p2p0-4p2p0-----4p2p0-4p2p0------|
D|------4p2p0-----------4p2p0-----------4p2p0-|
A|--------------------------------------------|
D|--------------------------------------------|


e|---------------------------------------|
B|---------------------------------------|
G|-3-------------------------------------|
D|-3--------------3----------------------|
A|-1--------------3----------------------|
D|-----------0----3----------------------|
 |           x              
e|---------------------------------------|
B|---------------------------------------|
G|-4p2p0-----4p2p0-4p2p0-----4p2p0-4p2-0-|
D|------4p2p0-----------4p2p0------------|
A|---------------------------------------|
D|---------------------------------------|


e|--------------------------------|----------------------------------|
B|--------------------------------|----------------------------------|
G|-----------------4--------------|----------------------------------|
D|-2---------------4--------------|----------------------------------|
A|-2---------------2--------------|----------------------------------|
D|-2-------0----------------------|-7-7-7-7-3-3-3-3-5-5-5-5-1-1-1-1--|
 |         x                        x x x x x x x x x x x x x x x x
e|--------------------------------|----------------------------------|
B|------0--5p2--0--6p3--0--7p4--0-|-8p5--0--9p6--0--10p7--0--11p8--0-|
G|-4p2----------------------------|----------------------------------|
D|--------------------------------|----------------------------------|
A|--------------------------------|----------------------------------|
D|--------------------------------|----------------------------------|


 w/ Rhy Fig 3 three times
e|--------------------------------|---------------------------------|
B|-12p9-0-13p10-0-15p12-0-16p13-0-|-17p14-0-18p15-0-19p16-0-20p17-0-|
G|--------------------------------|---------------------------------|
D|--------------------------------|---------------------------------|
A|--------------------------------|---------------------------------|
D|--------------------------------|---------------------------------|

e|---------------------------------|-----------------------------|
B|-21p18-0-22p19-0-22p19-0-22p19-0-|-22p19-0-22p19-0-22p19-0-22\-|
G|---------------------------------|-----------------------------|
D|---------------------------------|-----------------------------|
A|---------------------------------|-----------------------------|
D|---------------------------------|-----------------------------|

     /\/\/\/\/\/\/\/\/\/\/\/\/\/\/\/\/\/\/\/\/\/\/\/\
e|-20----------------------------|-(20)------------------------|
B|-X-----------------------------|-(X)-------------------------|
G|-X-----------------------------|-(X)-------------------------|
D|-X-----------------------------|-(X)-------------------------|
A|-0-----------------------------|-(0)-------------------------|
D|-------------------------------|---------------------20\-----|

 Gtr 1
e|--------------------------|----------------|
B|--------------------------|----------------|
G|--------------------------|----------------|
D|------------7--\----------|----7--\-/7-----|
A|------------7--\----------|----7--\-/7-----|
D|-0-0-0-0-0--7--\--0-0-0-0-|-0--7--\-/7-----|
 |Gtr 2
e|--------------------------|----------------|
B|------------13-\----------|----13----13\---|
G|------------12-\----------|----12----12\---|
D|-5---/---14-------5----/--|-14-------------|
A|--------------------------|----------------|
D|--------------------------|----------------|


e|--------------------------|------------------|
B|--------------------------|------------------|
G|--------------------------|------------------|
D|------------7--\----------|----7--\-/7-------|
A|------------7--\----------|----7--\-/7-------|
D|-0-0-0-0-0--7--\--0-0-0-0-|-0--7--\-/7-------|
 |
e|--------------------------|------------------|
B|------------13-\----------|----13----13\-----|
G|------------12-\----------|----12----12\-----|
D|-5---/---14-------5----/--|-14-----------2p0-|
A|--------------------------|------------------|
D|--------------------------|------------------|


[Interlude]

 Both Gtrs
e| --------------------|----------------------|--------------------|
B|X--------------------|----------------------|--------------------|
G| --------------------|----------------------|--------------------|
D| -7h8--7---------7h8-|-7--------------------|-7h8--7---------7h8-|
A|X-5----5--8------5---|-5--8---5-------------|-5----5--8------5---|
E| ---------0---0------|----0---0--0--0--0--0-|---------0---0------|
               x                  x  x  x  x               x

e|----------------------|---------------------|---------------------|
B|----------------------|---------------------|---------------------|
G|----------------------|---------------------|---------------------|
D|-7--------------------|-7h8--7----------7---|-7h8---7-------------|
A|-5--8---5-------------|-5----5--8----5--8---|-8-8---8--8--8--8--8-|
D|----0---0--0--0--0--0-|---------0----0--7---|-7-7---7--7--7--7--7-|
             x  x  x  x                                  x  x  x  x

e|-----------------------|----------------------- |
B|-----------------------|-----------------------X|
G|-----------------------|----------------------- |
D|-6-----6h7----6--2-----|-2h3-----2------------- | (repeat)
A|-7-----7-7----7--3-----|-3-3-----3--3--3--3--0-X|
D|-6-----6-6----6--2-----|-2-2-----2--2--2--2--0- |
                                      x  x  x  x

e| --------------------------------- |
B|X---------------------------------X|
G| --------------------------------- |
D| --------------------------------- | Play 4 times
A|X---------------------------------X|
E| -0-0-0-0-0-0-0-0-0-0-0-0-0-0-0-0- |
    x x x x x x x x x x x x x x x x

e| --------------------------------- |
B|X---------------------------------X|
G| --------------------------------- | (repeat)
D| --------------------------------- |
A|X---------------------------------X|
E| -2-2-2-2-2-2-2-2-2-2-2-2-2-2-2-2- |
    x x x x x x x x x x x x x x x x


[Solo]

 Gtr 1
e|------------------------------|---------------|
B|------------------------------|---------------|
G|------------------------------|---------------|
D|------------------------------|---------------|
A|------------------------------|---^^^---------|
D|-2-2-2-2-2-2-2-2-2-2-2-2-2--/-|-9---5---7---3-|
 | x x x x x x x x x x x x                        
 |Gtr 2 w/ wah
e|-------0---------(0)----------|---------------|
B|-----0-----------(0)----------|---------0-----|
G|---0-------------(0)----------|---------------|
D|-0---------------(0)----------|---------------|
A|------------------------------|---------------|
D|------------------Bar Dive----|---------Dive--|
                                -1 -2 1/2   -2 1/2


e|-----------------------------|
B|-----------------------------|
G|-----------------------------|
D|---------2-------------------|
A|---------2-------------------|
D|-2-2-2-2-2-------------------|
 | x x x x x  
e|-----------------------------|
B|-----------------------------|
G|-3p2p0-----3p2p0-----3p2p0---|
D|-------2---------2---------2-|
A|-----------------------------|
D|-----------------------------|


e|-------------------------------|-------------------------------|
B|-------------------------------|-------------------------------|
G|-------------------------------|-------------------------------|
D|---------2---------------------|---------3---------------------|
A|---------2---------------------|---------3---------------------|
D|-2-2-2-2-2---------------------|-3-3-3-3-3---------------------|
 | x x x x                         x x x x
e|-------------------------------|-------------------------------|
B|-3p2p0-----3p2p0-----3p2p0-----|-3p2p0-----3p2p0-----3p2p0-----|
G|-------2---------2---------2---|-------3---------3---------3p0-|
D|-------------------------------|-------------------------------|
A|-------------------------------|-------------------------------|
D|-------------------------------|-------------------------------|
 

e|-------------------------------|---------------------------------|
B|-------------------------------|---------------------------------|
G|-------------------------------|---------5-----------------------|
D|---------3---------------------|---------5-----------------------|
A|---------3---------------------|-3-3-3-3-3-----------------------|
D|-3-3-3-3-3---------------------|---------------------------------|
 | x x x x                         x x x x
e|-------------------------------|---------------------------------|
B|-------------------------------|-5p3---0-5p3---0-5p3---0-5p3---0-|
G|-3p2p0-----3p2p0-----3p2p0-----|-----5-------5-------5-------5---|
D|-------3---------3---------3p0-|---------------------------------|
A|-------------------------------|---------------------------------|
D|-------------------------------|---------------------------------|


e|---------------------------------|---------------------------------|
B|---------------------------------|---------------------------------|
G|---------5-----------------------|---------------------------------|
D|---------5-----------------------|---------5-----------------------|
A|-3-3-3-3-3-----------------------|---------5-----------------------|
D|---------------------------------|-5-5-5-5-5-----------------------|
 | x x x x                           x x x x
e|---------------------------------|---------------------------------|
B|---------------------------------|---------------------------------|
G|-5p3---0-5p3---0-5p3---0-5p3---0-|---------------------------------|
D|-----5-------5-------5-------5---|-5p3---0-5p3---0-5p3---0-5p3---0-|
A|---------------------------------|-----5-------5-------5-------5---|
D|---------------------------------|---------------------------------|


e|-------------------------------|--------------------------------|
B|-------------------------------|--------------------------------|
G|-------------------------------|--------------------------------|
D|---------5-----------5---4---3-|---------2---------------2------|
A|---------5-----------5---4---3-|---------2---------------2------|
D|-5-5-5-5-5-----------5---4---3-|-2-2-2-2-2-------2-2-2-2-2------|
 | x x x x             x   x   x   x x x x         x x x x
e|-------------------------------|--------------------------------|
B|-------------------------------|--------------------------------|
G|-------------------------------|-3p2p0-----3p2p0-------3p2p0----|
D|-5p3---0-5p3---0-5p3---0-5p3\2-|-------2---------2-----------2--|
A|-----5-------5-------5---------|--------------------------------|
D|-------------------------------|--------------------------------|


e|------------------------------------|------------------------------------|
B|------------------------------------|------------------------------------|
G|------------------------------------|------------------------------------|
D|---------2-----------------2--------|---------3-----------------3--------|
A|---------2-----------------2--------|---------3-----------------3--------|
D|-2-2-2-2-2---------2-2-2-2-2--------|-3-3-3-3-3---------3-3-3-3-3--------|
 | x x x x           x x x x            x x x x           x x x x 
e|------------------------------------|------------------------------------|
B|-3p2p0----3p2p0----3p2p0----3p2p0---|-3p2p0----3p2p0----3p2p0----3p2p0---|
G|-------2--------2--------2--------2-|-------3--------3--------3--------3-|
D|------------------------------------|------------------------------------|
A|------------------------------------|------------------------------------|
D|------------------------------------|------------------------------------|



e|------------------------------------|------------------------------------|
B|------------------------------------|------------------------------------|
G|------------------------------------|---------5-----------------5--------|
D|---------3-----------------3--------|---------5-----------------5--------|
A|---------3-----------------3--------|-3-3-3-3-3---------3-3-3-3-3--------|
D|-3-3-3-3-3---------3-3-3-3-3--------|------------------------------------|
 | x x x x           x x x x            x x x x           x x x x
e|------------------------------------|------------------------------------|
B|------------------------------------|------------------------------------|
G|-3p2p0----3p2p0----3p2p0----3p2p0---|-5p3p0----5p3p0----5p3p0----5p3p0---|
D|-------3--------3--------3--------3-|-------5--------5--------5--------5-|
A|------------------------------------|------------------------------------|
D|------------------------------------|------------------------------------|


e|------------------------------------|------------------------------------|
B|------------------------------------|------------------------------------|
G|---------5-----------------5--------|------------------------------------|
D|---------5-----------------5--------|---------5-----------------5--------|
A|-3-3-3-3-3---------3-3-3-3-3--------|---------5-----------------5--------|
D|------------------------------------|-5-5-5-5-5---------5-5-5-5-5--------|
 | x x x x           x x x x            x x x x           x x x x
e|------------------------------------|------------------------------------|
B|------------------------------------|------------------------------------|
G|-5p3p0----5p3p0----5p3p0----5p3p0---|------------------------------------|
D|-------5--------5--------5--------5-|-5p3p0----5p3p0----5p3p0----5p3p0---|
A|------------------------------------|-------5--------5--------5--------5-|
D|------------------------------------|------------------------------------|



e|-----------------------------------|
B|-----------------------------------|
G|-----------------------------------|
D|---------5-------------5--4--3-----|
A|---------5-------------5--4--3-----|
D|-5-5-5-5-5---------5-5-5--4--3-----|
 | x x x x           x x x  x  x     
e|-----------------------------------|
B|-----------------------------------|
G|--------------------------------12-|
D|-5p3p0----5p3p0----5p3p0---5/14----|
A|-------5--------5------------------|
D|-----------------------------------|


e|-------------------------------------------------|
B|-------------------------------------------------|
G|-------------------------------------------------|
D|---------2-----------------------2---------------|
A|---------2-----------------------2---------------|
D|-2-2-2-2-2---------------2-2-2-2-2---------------|
 | x x x x                 x x x x
e|-------------------------------------------------|
B|-------------------------------------------------|
G|-14p12----12-14p12-14p12----12-14p12-14p12----12-|
D|-------14----------------14----------------14----|
A|-------------------------------------------------|
D|-------------------------------------------------|


e|------------------------------------|---------------------------------|
B|------------------------------------|---------------------------------|
G|------------------------------------|---------------------------------|
D|---------2--------------------------|---------------------------------|
A|---------2--------------------------|---------------------------------|
D|-2-2-2-2-2----------------2-2-2-2-X-|-0-0-0-0-0-0-0-0-0-0-0-0-0-0-0-0-|
 | x x x x                  x x x x     x x x x x x x x x x x x x x x x
e|------------------14--15--17---/----|-24\-----------------------------|
B|------17--15--17----------#---------|---------------------------------|
G|/16-----------------------#---------|---------------------------------|
D|------------------------------------|---------------------------------|
A|------------------------------------|---------------------------------|
D|------------------------------------|---------------------------------|


 Both Gtrs. (no wah)
e|---------------------------------|
B|---------------------------------|
G|---------------------------------| Play 3 times
D|---------------------------------|
A|---------------------------------|
D|-0-0-0-0-0-0-0-0-0-0-0-0-0-0-0-0-|
   x x x x x x x x x x x x x x x x


e| -----------------------|-------------------|--------------------------------|
B|X-----------------------|-------------------|--------------------------------|
G| ---------10-----9------|-8-----7-----8-----|-9------------------------------|
D| ---------10-----9------|-8-----7-----8-----|-9------------------------------|
A|X---------8------7------|-6-----5-----6-----|-7------------------------------|
E| -0-0-0-0-8------7------|-6-----5-----6-----|-7--0-0-0-0-0-0-0-0-0-0-0-0-0-0-|
    x x x x                                        x x x x x x x x x x x x x x


e|--------------------------------- |
B|---------------------------------X|
G|--------------------------------- |
D|--------------------------------- | (repeat)
A|---------------------------------X|
D|-0-0-0-0-0-0-0-0-0-0-0-0-0-0-0-0- |
   x x x x x x x x x x x x x x x x


e|-----------------------|---------------|---------------|---------------|
B|-----------------------|---------------|---------------|---------------|
G|----------10-----9-----|-8-----7-----8-|-9-----7-----6-|-5-----4-----5-|
D|----------10-----9-----|-8-----7-----8-|-9-----7-----6-|-5-----4-----5-|
A|----------8------7-----|-6-----5-----6-|-7-----5-----4-|-3-----2-----3-|
D|-0-0-0-0--8------7-----|-6-----5-----6-|-7-----5-----4-|-3-----2-----3-|
   x x x x


e|---------------------------------|---------------------------------|
B|---------------------------------|---------------------------------|
G|---------------------------------|---------------------------------|
D|---------------------------------|---------------------------------|
A|---------------------------------|---------------------------------|
D|-0-0-0-0-0-0-0-0-0-0-0-0-0-0-0-0-|-0-0-0-0-0-0-0-0-0-0-0-0-0-0-0-0-|
   x x x x x x x x x x x x x x x x   x x x x x x x x x x x x x x x x


e|---------------------------------|--------------------------|
B|---------------------------------|--------------------------|
G|---------------------------------|--------------------------|
D|---------------------------------|------------------3--2--1-|  Play 4 times
A|---------------------------------|------------------3--2--1-|
D|-0-0-0-0-0-0-0-0-0-0-0-0-0-0-0-0-|-0-0-0-0-0-0-0-0--3--2--1-|
   x x x x x x x x x x x x x x x x   x x x x x x x x


e|---------------------------------|------------------------|
B|---------------------------------|------------------------|
G|---------------------------------|------------------------|
D|---------------------------------|------------------3--2--|
A|---------------------------------|------------------3--2--|
D|-0-0-0-0-0-0-0-0-0-0-0-0-0-0-0-0-|-0-0-0-0-0-0-0-0--3--2--|



Play CHORUS


 Both Gtrs
e|--------------------------|----------------------------|
B|--------------------------|----------------------------|
G|--------------------------|----------------------------|
D|------------------1--1----|----1--1--------------------|  Play 2 times
A|------------------1--1----|----1--1--------------------|
D|-2-1--0--0--0--0--1--1--0-|-0--1--1--0--2-2--2--3-3--3-|
   x x  x  x  x  x        x   x        x  x x  x  x x  x

 Gtr 1
e|-----------------|---------------------|
B|-----------------|---------------------|
G|-------^^^^^^----|---------------------|
D|-----5-6-----5---|-----5---------5-----|
A|---5-------------|---5---^^^^^^----6---|
D|-0---------------|-0-----3-----0-------|
 |
 |Gtr 2                                        Play 4 times
e|-----------------|---------------------|
B|-----------------|---------------------|
G|-----------------|---------------------|
D|-0---------------|(0)-----------5--1---|
A|-0---------------|(0)-----------5--1---|
D|-0---------------|(0)-----------5--1---|
                                  x  x

 Both Gtrs
e|------------------------|-------------|
B|------------------------|-------------|
G|------------------------|-------------|
D|-3-----5-----3-----5----|-------------|  Play 3 times
A|-3-----5-----3-----5----|-3h5--3h5----|
D|-3--0--5--0--3--0--5--0-|---0----0--0-|
      x     x     x     x             x


e|------------------------|-----------------------|---------------------|
B|------------------------|-----------------------|---------------------|
G|------------------------|-----------------------|-7-------------------|
D|-3-----5-----3-----5----|------------------5----|-7--------------5----|  
A|-3-----5-----3-----5----|-3h5-----------------6-|-5-----------------6-|
D|-3--0--5--0--3--0--5--0-|---0----0--3---0-------|------0--3---0-------|
      x     x     x     x                 x              x      x


e|--------------------|--------------------|------------------|
B|--------------------|--------------------|------------------|
G|-7------------------|-7------------------|----------------^^^
D|-7------3------5----|-7------3------5----|-------5--6-----5-|
A|-5------3---------6-|-5------3---------6-|----5-------------|
D|-----0--3---0-------|-----0--3---0-------|-0----------------|
       x      x             x      x


e|-------------|-------------------|
B|-------------|-------------------|
G|^^^^^^^^^^^^^^^^^^^^^^-----------|
D|(5)----------|(5)-----------5--0-|
A|-------------|-----------5-----0-|
D|-------------|--------0--------0-|
                        x  x


**********************************

|  /     Slide Up
|  \     Slide down
|  h     hammer
|  p     pull off
|  ^^^^  Vibrato
|  x     Palm Mute
|  #     Tremolo
| +      Harmonic (slide)
| /\     Wide Vibrato

**********************************


|     |
|X   X|
|     |
|     |  Repeats
|X   X|
|     |

Source 2 : https://tabs.ultimate-guitar.com/m/metallica/all_nightmare_long_ver5_tab.htm