Tablature guitare : Marilyn Manson – The Nobodies

Name: Josh Manning
Tabs: 12-08-00
Here it is, the tab for "The Nobodies" from Marilyn Manson's
Holywood CD. Very awesome song that is very fun to play 
and sing along to.  This is the tab for the acoustic version, 
though is sounds cool with distortion too.  *Standard Tuning*

 [Intro and verses]
e|--------------------------------------------------------------|
B|--------------------------------------------------------------|
G|--5-5---5-5-----5-5---5-5---5------5------5-5----5-5----------|
D|---7-----7-------7-----7-----6------6------7------7-----------|
A|0-----0-----------------------7--7---7--0---------------------|
E|-------------7------7-----0--------------------0--------------|


 [Chorus]
e|--------------------------------------------------------------|
B|--------------------------------------------------------------|
G|--------------------------------------------------------------|
D|7------10------2------7------5--------------------------------|
A|7-(8x)-10-(8x)-2-(8x)-7-(4x)-5--(8x)--------------------------|
E|5------8-------0------5------3--------------------------------|

 [Bridge]
e|--------------------------------------------------------------|
B|--------------------------------------------------------------|
G|--------------------------------------------------------------|
D|7------3------------------------------------------------------|
A|7-(8x)-3-(8x)-------------------------------------------------|
E|5------1------------------------------------------------------|

https://tabs.ultimate-guitar.com/m/marilyn_manson/the_nobodies_tab.htm