Tablature guitare : Marilyn Manson – The Fight Song

Artist:Marilyn Manson
Album:Holywood
Song:The Fight Song
----------------------
as tabbed by Posthuman
posthuman696@hotmail.com
------------------------

Standard tuning


 [Intro]
        NH
e|-----(12)-----------------------------------------------------|
B|--------------------------------------------------------------|
G|--------------------------------------------------------------|
D|-11------------11---14--14--14--11--11------11--14--14--14----|
A|-9-------------9----12--12--12--9---9-------9---12--12--12----|
E|----------0-----------------------------0---------------------|


[Main Riff]

e|--------------------------------------------------------------|
B|--------------------------------------------------------------|
G|----------------2---------------------------------------------|
D|-4--4--------4--2----------4--4--------4--2--2--2-------------|
A|-4--4--------4--0---(x3)---4--4--------4--2--2--2-------------|
E|-2--2--0--0--2-------------2--2--0--0--2--0--0--0-------------|


[Riff 1]

        NH
e|-----(12)-----------------------------------------------------|
B|--------------------------------------------------------------|
G|--------------------------------------------------------------|
D|-11------------11---14--14--14--11--11------11--14--14--14----|
A|-9-------------9----12--12--12--9---9-------9---12--12--12----|
E|----------0-----------------------------0---------------------|

Riff 1(continues):

e|--------------------------------------------------------------|
B|--------------------------------------------------------------|
G|--------------------------------------------------------------|
D|-11--11------11--14--14--14--11--11-----11--9--9--9-----------|
A|-9---9-------9---12--12--12--9---9------9---7--7--7-----------|
E|---------0---------------------------0------------------------|


[Riff 2]

e|-------------------------------------------------------------------|
B|-------------------------------------------------------------------|
G|-------------------------------------------------------------------|
D|-9------7------9------7------12------9------7------14------15------|
A|-9-(x8)-7-(x8)-9-(x8)-7-(x8)-12-(x8)-9-(x8)-7-(x8)-14-(x6)-15-(x2)-|
E|-7------5------7------5------10------7------5------12------13------|


[Riff 3]

e|-----------------------------------|
B|-----------------------------------|
G|-----------------------------------|
D|-10------12--7---------------------|
A|-10-(x8)-12--7-(x8)----------------|
E|--8------10--5---------------------|
("the death of one is a tragedy....")


[Riff 4]

e|------------------------------------------|
B|------------------------------------------|
G|------------------------------------------|
D|-10---------------------------------------|
A|-10-(x16)---------------------------------|
E|--8---------------------------------------|
("the death of million is just a statistic.....")

nice song............. :--)



************************************

| (n)  Ghost note

************************************

https://tabs.ultimate-guitar.com/m/marilyn_manson/the_fight_song_ver3_tab.htm