Tablature guitare : Marilyn Manson – If I Was Your Vampire

if you're reading this before june 5th you're probably wondering: how could this guy 
have tabbed that song yet?

well as you know marilyn manson is releasing a new album this summer and 2 songs have 
put on the internet. this one I found on youtube. just search for "if I was your vampire"

anyway here goes

main verse riff

e|----------------|----------------|---------------|
B|----------------|----------------|---------------|
G|----------------|----------------|---------------|
D|----------------|----------------|---------------|
A|--2-3~~---------|--2-3~~---------|--2-3-2-0-5-3-2|
E|0--0------------|0--0------------|0--0-----------|

  1 2 3 4 1 2 3 4  1 2 3 4 1 2 3 4  1 2 3 4 1 2 3 4

chorus:
e|----------------|----------------|-------------------|
B|----------------|----------------|-------------------|
G|----------------|----------------|-------------------|
D|--9-10----------|--9-10----------|--9--10-9-7-12-10-9|
A|7--7-----7-7-7-7|7--7-----7-7-7-7|7--7---------------|
E|---------0-0-0-0|---------0-0-0-0|-------------------|

  1 2 3 4 1 2 3 4  1 2 3 4 1 2 3 4  1 2  3 4 1 2  3  4

then comes the verse again and a chorus

break:

I'm not sure about this part, but at least these power chords that I have written down 
fit, so if you're unable to find it out yourself, you can always use this riff.

e|----------------|----------------|-------------------|
B|----------------|----------------|-------------------|
G|----------------|----------------|-------------------|
D|7777777777777777|5555555555555555|3333333333333333333|
A|5555555555555555|3333333333333333|1111111111111111111|
E|----------------|----------------|-------------------|

then comes a verse again and then a chorus followed by this:


outro:
e|------------------------|------------------------|
B|------------------------|------------------------|
G|0~----------0-----------|0-----------0----5-4~---|
D|----4-2-1-2---4--2------|----4-2-1-2---4---------|
A|-------------------3-2--|------------------------|
E|------------------------|------------------------|

  1 2 3 4 1 2 3 4 1 2 3 4   1 2 3 4 1 2 3 4 1 2 3 4

verse  x4
chorus x2
verse  x4
chorus x2
break  x2
verse  x3
chorus x4
outro  x3


I'm not sure if I got the number of times you are supposed to play the riff right but 
just gonna have to figure that out yourself.

please rate, thank you!:D

https://tabs.ultimate-guitar.com/m/marilyn_manson/if_i_was_your_vampire_ver2_tab.htm