Tablature guitare : Linkin Park – New Divide

This is Linkin Park's new single for the new movie Transformers 2.
This is my first ever tab, so please go easy on me!
Hope you enjoy my tab!

When you see a part that has lead and rhythm, I've tabbed the lead and the rhythm
will be underneath it. I hope it's not too confusing!

UPDATED: 2/7/2009 SOLO - I figured out what I believe to be is the solo. When you first 
at it, you will probably go what the?!...but if you listen to the song, I think you'll figure
it out, hopefully. Try and figure out the timing for yourself.

UPDATED: 21/7/2009 INTRO GTR III - Thank you axisallareas who spotted this. The intro rhythm
is the only thing that has now been changed, so whenever the three guitars are playing at the
same time (intro, after chorus, outro etc.) you add the two power chords on 10 at the end.


***********************************************************************
Tab Legend:

h = hammer on
p = pull off
* = pinch harmonic
. = palm mute
~ = let ring
b = half bend
br = bend release
x = muted note, or whatever you want to call it (dead, ghost etc)
***********************************************************************


Tuning:
(Fill) Guitar I: Standard (E A D G B E)
(Lead) Guitar II: Standard (E A D G B E)
(Rhythm) Guitar III: Drop D (D A D G B E)



[INTRO]

GTR I x4
|-------------------------------------------------------------------------|
|-------------------------------------------------------------------------|
|-------------------------------------------------------------------------|
|--6---------------10---------------13-----------------10-----------------|
|-----8----------------8----------------13-----------------8--------------|
|-------------------------------------------------------------------------|

GTR II x2(comes in after the second time)
|-------------------------------------------------------------------------|
|-------------------------------------------------------------------------|
|-----10---play this----------8--then this----------12--then this---------|
|------x---16 times-----------x---8 times------------x---8 times----------|
|------8----------------------6---------------------10--------------------|
|-------------------------------------------------------------------------|

GTR III x2(also comes in after the second time, with guitar II)
|-------------------------------------------------------------------------|
|-------------------------------------------------------------------------|
|-------------------------------------------------------------------------|
|---3-3-3-3-3-3-3-3-6-6-6-6-6-6-6-6-1-1-1-1-1-1-1-1-8-8-8-8-8-8-10-10-----|
|---3-3-3-3-3-3-3-3-6-6-6-6-6-6-6-6-1-1-1-1-1-1-1-1-8-8-8-8-8-8-10-10-----|
|---3-3-3-3-3-3-3-3-6-6-6-6-6-6-6-6-1-1-1-1-1-1-1-1-8-8-8-8-8-8-10-10-----|


[VERSE]
No verse guitars here, only effects and drums.


[CHORUS]

GTR II
|-------------------------------------------------------------------------|
|-------------------------------------------------------------------------|
|----10---play this---------12---then this---------10---then this---------|
|-----x---16 times-----------x----8 times-----------x----8 times----------|
|-----8---------------------10----------------------8---------------------|
|-------------------------------------------------------------------------|

GTR III
|-------------------------------------------------------------------------|
|-------------------------------------------------------------------------|
|-------------------------------------------------------------------------|
|----3-3-3-3-3-3-3-3-3-3-3-3-3-3-3-3-1-1-1-1-1-1-1-1-8-8-8-8-8-8-8-8------|
|----3-3-3-3-3-3-3-3-3-3-3-3-3-3-3-3-1-1-1-1-1-1-1-1-8-8-8-8-8-8-8-8------|
|----3-3-3-3-3-3-3-3-3-3-3-3-3-3-3-3-1-1-1-1-1-1-1-1-8-8-8-8-8-8-8-8------|

GTR II
|-------------------------------------------------------------------------|
|-------------------------------------------------------------------------|
|-10-play this---8-then this---12-then this---13-then this---12-then this-|
|--x-8 times-----x-8 times------x--8 times-----x--4 times-----x--4 times--|
|--8-------------6-------------10-------------11-------------10-----------|
|-------------------------------------------------------------------------|

GTR III
|-------------------------------------------------------------------------|
|-------------------------------------------------------------------------|
|-------------------------------------------------------------------------|
|----3-3-3-3-3-3-3-3-6-6-6-6-6-6-6-6-1-1-1-1-1-1-1-1-1-1-1-1-1-1-1-1------|
|----3-3-3-3-3-3-3-3-6-6-6-6-6-6-6-6-1-1-1-1-1-1-1-1-1-1-1-1-1-1-1-1------|
|----3-3-3-3-3-3-3-3-6-6-6-6-6-6-6-6-1-1-1-1-1-1-1-1-1-1-1-1-1-1-1-1------|

GTR II
|-------------------------------------------------------------------------|
|-------------------------------------------------------------------------|
|--10--play this-----8--then this-----12--then this-----10--then this-----|
|---x--8 times-------x--8 times--------x--8 times--------x--8 times-------|
|---8----------------6----------------10-----------------8----------------|
|-------------------------------------------------------------------------|

GTR III
|-------------------------------------------------------------------------|
|-------------------------------------------------------------------------|
|-------------------------------------------------------------------------|
|---3-3-3-3-3-3-3-3-6-6-6-6-6-6-6-6-1-1-1-1-1-1-1-1-8-8-8-8-8-8-8-8-------|
|---3-3-3-3-3-3-3-3-6-6-6-6-6-6-6-6-1-1-1-1-1-1-1-1-8-8-8-8-8-8-8-8-------|
|---3-3-3-3-3-3-3-3-6-6-6-6-6-6-6-6-1-1-1-1-1-1-1-1-8-8-8-8-8-8-8-8-------|

GTR II
|-------------------------------------------------------------------------|
|-------------------------------------------------------------------------|
|-------13---play this-----------------15---then this---------------------|
|--------x---16 times-------------------x---16 times----------------------|
|-------11-----------------------------13---------------------------------|
|-------------------------------------------------------------------------|

GTR III
|-------------------------------------------------------------------------|
|-------------------------------------------------------------------------|
|---6-6-6-6-6-6-6-6-6-6-6-6-6-6-6-6-8-8-8-8-8-8-8-8-8-8-8-8-8-8-8-8-------|
|---6-6-6-6-6-6-6-6-6-6-6-6-6-6-6-6-8-8-8-8-8-8-8-8-8-8-8-8-8-8-8-8-------|
|---4-4-4-4-4-4-4-4-4-4-4-4-4-4-4-4-6-6-6-6-6-6-6-6-6-6-6-6-6-6-6-6-------|
|-------------------------------------------------------------------------|


Then repeat the intro ONCE with all 3 guitars playing.
"across this new divideeeeee"


[VERSE II]

I think the bass could be playing this verse. I tabbed what I assumed it would've been
it were bass.
This could also be used on the first verse in the song if you want to use it.
Tuning (D A D G)

BASS x3
|-------------------------------------------------------------------------|
|-------------------------------------------------------------------------|
|-------------------------------------------------------------------------|
|---3-3-3-3-3-3-3-3-6-6-6-6-6-6-6-6-1-1-1-1-1-1-1-1-8-8-8-8-8-8-8-8-------|

BASS x1
|-------------------------------------------------------------------------|
|-------------------------------------------------------------------------|
|---4-4-4-4-4-4-4-4-4-4-4-4-4-4-4-4-1-1-1-1-1-1-1-1-1-1-1-1-1-1-1-1-------|
|-------------------------------------------------------------------------|



[SECOND CHORUS]

This one is shorter than the first chorus, but still the same.

GTR II
|-------------------------------------------------------------------------|
|-------------------------------------------------------------------------|
|----10---play this---------12---then this---------10---then this---------|
|-----x---16 times-----------x----8 times-----------x----8 times----------|
|-----8---------------------10----------------------8---------------------|
|-------------------------------------------------------------------------|

GTR III
|-------------------------------------------------------------------------|
|-------------------------------------------------------------------------|
|-------------------------------------------------------------------------|
|----3-3-3-3-3-3-3-3-3-3-3-3-3-3-3-3-1-1-1-1-1-1-1-1-8-8-8-8-8-8-8-8------|
|----3-3-3-3-3-3-3-3-3-3-3-3-3-3-3-3-1-1-1-1-1-1-1-1-8-8-8-8-8-8-8-8------|
|----3-3-3-3-3-3-3-3-3-3-3-3-3-3-3-3-1-1-1-1-1-1-1-1-8-8-8-8-8-8-8-8------|

GTR II
|-------------------------------------------------------------------------|
|-------------------------------------------------------------------------|
|-10-play this---8-then this---12-then this---13-then this---12-then this-|
|--x-8 times-----x-8 times------x--8 times-----x--4 times-----x--4 times--|
|--8-------------6-------------10-------------11-------------10-----------|
|-------------------------------------------------------------------------|

GTR III
|-------------------------------------------------------------------------|
|-------------------------------------------------------------------------|
|-------------------------------------------------------------------------|
|----3-3-3-3-3-3-3-3-6-6-6-6-6-6-6-6-1-1-1-1-1-1-1-1-1-1-1-1-1-1-1-1------|
|----3-3-3-3-3-3-3-3-6-6-6-6-6-6-6-6-1-1-1-1-1-1-1-1-1-1-1-1-1-1-1-1------|
|----3-3-3-3-3-3-3-3-6-6-6-6-6-6-6-6-1-1-1-1-1-1-1-1-1-1-1-1-1-1-1-1------|



[SOLO]

Finally, the long awaited solo. Hopefully it makes more sense when you figure it out 
are some effects in there, but I'm just tabbing what I can hear.

GTR II x4
|------------------------------------------------------------|
|---------------------------------------6-6------------------|
|------------------3b------------------------3b--------------|
|--------------3*-------------------------------------5b-----|
|----------------------------1--5br--------------------------|
|-1-1-1-1-1-1----------1-1-4--------(4)----------4br---------|
  . . . . . .          . . . .

When playing the solo the 4th time, end on the 4 on low e string where I've indicated in brackets.

GTR III x3(the solo plays 4 times, come in after the first time)
|--------------------------------------------------------------------|
|--------------------------------------------------------------------|
|--------------------------------------------------------------------|
|----3--3--3-----------3------------3----3--------------3------------|
|----3--3--3-----------3------------3----3--------------3------------|
|----3--3--3-----------3------------3----3--------------3------------|
when you play it the last time, don't play the last chord.


[BRIDGE]

GTR II x2
|-------------------------------------------------------------------------|
|-------------------------------------------------------------------------|
|-----10---play this----------8--then this----------12--then this---------|
|------x---16 times-----------x---8 times------------x---8 times----------|
|------8----------------------6---------------------10--------------------|
|-------------------------------------------------------------------------|

GTR III x2
|-------------------------------------------------------------------------|
|-------------------------------------------------------------------------|
|-------------------------------------------------------------------------|
|---3-3-3-3-3-3-3-3-6-6-6-6-6-6-6-6-1-1-1-1-1-1-1-1-8-8-8-8-8-8-8-8-------|
|---3-3-3-3-3-3-3-3-6-6-6-6-6-6-6-6-1-1-1-1-1-1-1-1-8-8-8-8-8-8-8-8-------|
|---3-3-3-3-3-3-3-3-6-6-6-6-6-6-6-6-1-1-1-1-1-1-1-1-8-8-8-8-8-8-8-8-------|

GTR II x2
|-------------------------------------------------------------------------|
|-------------------------------------------------------------------------|
|--10--play this-----12--then this-----13--then this-----15--then this----|
|---x---4 times-------x---4 times-------x---4 times-------x---4 times-----|
|---8----------------10----------------11----------------13---------------|
|-------------------------------------------------------------------------|

GTR III
|-----------------------------------------------------------------------|
|-----------------------------------------------------------------------|
|---6-6-6-6-6-6-6-6-6-6-6-6-6-6-6-6-3-3-3-3-3-3-3-3-3-3-3-3---6---6-----|
|---6-6-6-6-6-6-6-6-6-6-6-6-6-6-6-6-3-3-3-3-3-3-3-3-3-3-3-3---6---6-----|
|---4-4-4-4-4-4-4-4-4-4-4-4-4-4-4-4-1-1-1-1-1-1-1-1-1-1-1-1---4---4-----|
|-----------------------------------------------------------------------|


[THIRD CHORUS]

The beginning of this chorus is just guitar lead and bass

GTR II
|-------------------------------------------------------------------------|
|-------------------------------------------------------------------------|
|----10---play this---------12---then this---------10---then this---------|
|-----x---16 times-----------x----8 times-----------x----8 times----------|
|-----8---------------------10----------------------8---------------------|
|-------------------------------------------------------------------------|

GTR II
|-------------------------------------------------------------------------|
|-------------------------------------------------------------------------|
|-10-play this---8-then this---12-then this---13-then this---12-then this-|
|--x-8 times-----x-8 times------x--8 times-----x--4 times-----x--4 times--|
|--8-------------6-------------10-------------11-------------10-----------|
|-------------------------------------------------------------------------|

GTR II
|-------------------------------------------------------------------------|
|-------------------------------------------------------------------------|
|--10--play this-----8--then this-----12--then this-----10--then this-----|
|---x--8 times-------x--8 times--------x--8 times--------x--8 times-------|
|---8----------------6----------------10-----------------8----------------|
|-------------------------------------------------------------------------|

GTR III
|-------------------------------------------------------------------------|
|-------------------------------------------------------------------------|
|-------------------------------------------------------------------------|
|---3-3-3-3-3-3-3-3-6-6-6-6-6-6-6-6-1-1-1-1-1-1-1-1-8-8-8-8-8-8-8-8-------|
|---3-3-3-3-3-3-3-3-6-6-6-6-6-6-6-6-1-1-1-1-1-1-1-1-8-8-8-8-8-8-8-8-------|
|---3-3-3-3-3-3-3-3-6-6-6-6-6-6-6-6-1-1-1-1-1-1-1-1-8-8-8-8-8-8-8-8-------|

GTR II
|-------------------------------------------------------------------------|
|-------------------------------------------------------------------------|
|-------13---play this-----------------15---then this---------------------|
|--------x---16 times-------------------x---16 times----------------------|
|-------11-----------------------------13---------------------------------|
|-------------------------------------------------------------------------|

GTR III
|-------------------------------------------------------------------------|
|-------------------------------------------------------------------------|
|---6-6-6-6-6-6-6-6-6-6-6-6-6-6-6-6-8-8-8-8-8-8-8-8-8-8-8-8-8-8-8-8-------|
|---6-6-6-6-6-6-6-6-6-6-6-6-6-6-6-6-8-8-8-8-8-8-8-8-8-8-8-8-8-8-8-8-------|
|---4-4-4-4-4-4-4-4-4-4-4-4-4-4-4-4-6-6-6-6-6-6-6-6-6-6-6-6-6-6-6-6-------|
|-------------------------------------------------------------------------|


[OUTRO]

For this, just play the intro twice with all three guitars, then play this and make sure
let the last note ring.

GTR I x2
|-------------------------------------------------------------------------|
|-------------------------------------------------------------------------|
|-------------------------------------------------------------------------|
|--6---------------10---------------13-----------------10-----------------|
|-----8----------------8----------------13-----------------8~~------------|
|-------------------------------------------------------------------------|


Hope you enjoy my first tab!
Please comment and rate it!

https://tabs.ultimate-guitar.com/l/linkin_park/new_divide_ver7_tab.htm