Tablature guitare : Korn – Right Now

KoRn - Right Now
Tabbed by - Francisco gil(gil57@hotmail.com)
Tuning - ADGCFad

INTRO (whit distortion)
d|--------------------------------------------------|
a|--------------------------------------------------|
F|--------------------------------------------------|
C|--------------------------------------------------| X3
G|--------------------------------------------------|
D|-------------10------------9------------8---------|
A|--0-0-1-0--0----0-0-1-0--0---0-0-1-0--0---0-0-1-0-|

In the 4 time change to
d|--------------------------------------------------|
a|--------------------------------------------------|
F|--------------------------------------------------|
C|--------------------------------------------------|
G|--------------------------------------------------|
D|-------------10------------9------------8---------|
A|-0000-1-0--0----0-0-1-0--0---0-0-1-0--0---0-0-1-0-|

Verse (clean)
d|--------------------------------------------|
a|--------------------------------------------|
F|--------------------------------------------|
C|--------------------------------------------|
G|--------------------------------------------|
D|--0--0--1-0--0000-1-0-----------------------|
A|--0--0--1-0--0000-1-0-----------------------|

Chorus (distortion)
d|--------------------------------------------------|
a|--------------------------------------------------|
F|--------------------------------------------------|
C|--------------------------------------------------| X3
G|--------------------------------------------------|
D|-------------10------------9------------8---------|
A|--0-0-1-0--0----0-0-1-0--0---0-0-1-0--0---0-0-1-0-|

In the 4 time change to
d|--------------------------------------------------|
a|--------------------------------------------------|
F|--------------------------------------------------|
C|--------------------------------------------------|
G|--------------------------------------------------|
D|-------------10------------9------------8---------|
A|-0000-1-0--0----0-0-1-0--0---0-0-1-0--0---0-0-1-0-|

Verse (clean)
d|--------------------------------------------|
a|--------------------------------------------|
F|--------------------------------------------|
C|--------------------------------------------|
G|--------------------------------------------|
D|--0--0--1-0--0000-1-0-----------------------|
A|--0--0--1-0--0000-1-0-----------------------|

Chorus (distortion)
d|--------------------------------------------------|
a|--------------------------------------------------|
F|--------------------------------------------------|
C|--------------------------------------------------| X3
G|--------------------------------------------------|
D|-------------10------------9------------8---------|
A|--0-0-1-0--0----0-0-1-0--0---0-0-1-0--0---0-0-1-0-|

In the 4 time change to
d|--------------------------------------------------|
a|--------------------------------------------------|
F|--------------------------------------------------|
C|--------------------------------------------------|
G|--------------------------------------------------|
D|-------------10------------9------------8---------|
A|-0000-1-0--0----0-0-1-0--0---0-0-1-0--0---0-0-1-0-|

Bridge
d|-----------------------|
a|-----------------------|
F|-----------------------|
C|-----------------------| x8
G|-----------------------|
D|-----------------------|
A|--44h5b4--4444h5b4-----|

Continued whit this
d|--------------------------------------------------|
a|--------------------------------------------------|
F|--------------------------------------------------|
C|--------------------------------------------------| 
G|--------------------------------------------------|
D|-------------10------------9------------8---------|
A|--0-0-1-0--0----0-0-1-0--0---0-0-1-0--0---0-0-1-0-|

d|--------------------------------------------------|
a|--------------------------------------------------|
F|--------------------------------------------------|
C|--------------------------------------------------|
G|--------------------------------------------------|
D|-------------10------------9------------8---------|
A|-0000-1-0--0----0-0-1-0--0---0-0-1-0--0---0-0-1-0-|

Chorus (distortion)
d|--------------------------------------------------|
a|--------------------------------------------------|
F|--------------------------------------------------|
C|--------------------------------------------------| X3
G|--------------------------------------------------|
D|-------------10------------9------------8---------|
A|--0-0-1-0--0----0-0-1-0--0---0-0-1-0--0---0-0-1-0-|

In the 4 time change to
d|--------------------------------------------------|
a|--------------------------------------------------|
F|--------------------------------------------------|
C|--------------------------------------------------|
G|--------------------------------------------------|
D|-------------10------------9------------8---------|
A|-0000-1-0--0----0-0-1-0--0---0-0-1-0--0---0-0-1-0-|

Outro
d|---------------------|
a|---------------------|
F|---------------------|
C|---------------------|
G|---------------------|
D|-0000-1-0--0000-1-0--|
A|-0000-1-0--0000-1-0--|

https://tabs.ultimate-guitar.com/k/korn/right_now_ver2_tab.htm