Tablature guitare : Korn – Here To Stay

KoRn - Here To Stay - Untouchables

Tabbed by Elvisz (elvisz@kornkids.com)
Tuning : 7 String Tuned Low to High (A D G C F a d)

Vocal: Jonathan Houseman Davis 'Hiv'
Guitar1: Brian Phillip Welch 'Head'
Guitar2: James Randal Shaffer 'Munky'
Bass: Reginald Arvizu 'Fieldy'
Drums: David Silveria

Intro:(Guitar2)		
d|------------------|---------------|
a|------------------|---------------|
F|------------------|---------------|
C|------------------|---------------|
G|------------------|---------------|
D|------------------|---------------|
A|-0-1-0-3-1-0-0-1h2|-0-1-0-3-1-0-0-|

Verse1:(Guitar1,Guitar2)
d|------------------|
a|------------------|
F|------------------|
C|------------------|
G|------------------|
D|-2-3--------------|
A|-0-1-0-3-1-0-0-1h2|

Verse2:(Guitar1,Guitar2)
d|------------------|------------------|
a|------------------|------------------| 
F|------------------|------------------|          
C|------------------|------------------|
G|------------------|------------------|
D|----------------/7|----------------/6|
A|-5-6-5-8-6-5-5-6--|-5-6-5-8-6-5-5-6--|

Pre-chorus:(Guitar1,Guitar2)
d|------------------------|----------------------|
a|------------------------|----------------------|
F|------------------------|----------------------|   
C|5~~~~~------------------|5---------------------|
G|5~~~~~------------------|5---------------------|
D|3~~~~~------------------|3---------------------|
A|-------2-0-2-3-2-0-2-02-|--2~~~~-0-2-3-2-0-2-02|

Chorus:
d|---------------------------|---------------------------|
a|---------------------------|---------------------------|		
F|---------------------------|---------------------------|  
C|-----------5---------2-----|-----------5---------2-----|	(Guitar2)
G|-2----5----5----5----2----3|-2----5----5----5----2-----|
D|-2----5----3----5----0----3|-2----5----3----5----04433-|
A|-0----3---------3---------1|-0----3---------3-----2211-|

d|-------------------------|------------------------|
a|-------------------------|------------------------|
F|-16-16-14-14-19-19-21-/23|-16-16-14-14-14---------|	
C|-xx-xx-xx-xx-xx-xx-xx--xx|-xx-xx-xx-xx-xx-16-17-14|	  (Guitar1)  
G|-14-14-12-12-17-17-19-/21|-14-14-12-12-12-xx-xx-xx|
D|-------------------------|----------------14-15-12|
A|-------------------------|------------------------|

Verse2:(Guitar1,Guitar2)
d|------------------|------------------|
a|------------------|------------------| 
F|------------------|------------------|          
C|------------------|------------------|
G|------------------|------------------|
D|----------------/7|----------------/6|
A|-5-6-5-8-6-5-5-6--|-5-6-5-8-6-5-5-6--|

Pre-chorus:(Guitar1,Guitar2)
d|------------------------|----------------------|
a|------------------------|----------------------|
F|------------------------|----------------------|   
C|5~~~~~------------------|5---------------------|
G|5~~~~~------------------|5---------------------|
D|3~~~~~------------------|3---------------------|
A|-------2-0-2-3-2-0-2-02-|--2~~~~-0-2-3-2-0-2-02|

Chorus:
d|---------------------------|---------------------------|
a|---------------------------|---------------------------|		
F|---------------------------|---------------------------|  
C|-----------5---------2-----|-----------5---------2-----|	(Guitar2)
G|-2----5----5----5----2----3|-2----5----5----5----2-----|
D|-2----5----3----5----0----3|-2----5----3----5----04433-|
A|-0----3---------3---------1|-0----3---------3-----2211-|

d|-------------------------|------------------------|
a|-------------------------|------------------------|
F|-16-16-14-14-19-19-21-/23|-16-16-14-14-14---------|	
C|-xx-xx-xx-xx-xx-xx-xx--xx|-xx-xx-xx-xx-xx-16-17-14|	  (Guitar1)  
G|-14-14-12-12-17-17-19-/21|-14-14-12-12-12-xx-xx-xx|
D|-------------------------|----------------14-15-12|
A|-------------------------|------------------------|

Fill1:

d|---|
a|---|
F|---|		(Guitar2)
C|---|		Let it ring... after that scratch the A,D string with 
G|-2-|	        fingernail, palmuted, while Guitar1 plays:
D|-2-|
A|-0-|

d|----------------------------|------------------------------------|
a|----------------------------|------------------------------------|
F|---16----14----19----21---23|---16----14----14-------------------|	
C|----------------------------|---------------------16----17-----14|	    
G|-14----12----17----19---21--|-14----12----12---------------------|
D|----------------------------|-------------------14----15-----12--|
A|----------------------------|------------------------------------|

d|----------------------------|------------------------------------|
a|----------------------------|------------------------------------|
F|---16----14----19----21---23|---16----14----14-----19-----21-----|	
C|----------------------------|------------------------------------|	    
G|-14----12----17----19---21--|-14----12----12-----17-----19-------|
D|----------------------------|------------------------------------|
A|----------------------------|------------------------------------|

Bridge1:
d|------------------|----------------|
a|------------------|----------------|
F|------------------|----------------|
C|------------------|----------------|	(Guitar2)
G|------------------|----------------|		
D|------------------|----------------|		
A|-0-0-12-0-0-0-0-0-|-0-0-12-0-0-0-0-|

d|---------------------------|---------------------------|
a|---------------------------|---------------------------|
F|-23-23-23-24---23-23-23-21-|-23-23-23-24---23-23-23-19-|	
C|-xx-xx-xx-xx---xx-xx-xx-xx-|-xx-xx-xx-xx---xx-xx-xx-xx-|	(Guitar1)
G|-21-21-21-22---21-21-21-19-|-21-21-21-22---21-21-21-17-|
D|---------------------------|---------------------------|
A|---------------------------|---------------------------|

Bridge2:(Guitar1,Guitar2)
d|------------------------|----------------------|
a|------------------------|----------------------|
F|------------------------|----------------------| 
C|------------------------|----------------------|   
G|------------------------|----------------------|
D|------------------------|----------------------|
A|-0-0-12-0-0-0-0-0-12/15-|-0-0-12-0-0-0-0-12/14-|

Verse2:(Guitar1,Guitar2)
d|------------------|------------------|
a|------------------|------------------| 
F|------------------|------------------|          
C|------------------|------------------|
G|------------------|------------------|
D|----------------/7|----------------/6|
A|-5-6-5-8-6-5-5-6--|-5-6-5-8-6-5-5-6--|

Pre-chorus:(Guitar1,Guitar2)
d|------------------------|----------------------|
a|------------------------|----------------------|
F|------------------------|----------------------|   
C|5~~~~~------------------|5---------------------|
G|5~~~~~------------------|5---------------------|
D|3~~~~~------------------|3---------------------|
A|-------2-0-2-3-2-0-2-02-|--2~~~~-0-2-3-2-0-2-02|

Chorus:
d|---------------------------|---------------------------|
a|---------------------------|---------------------------|		
F|---------------------------|---------------------------|  
C|-----------5---------2-----|-----------5---------2-----|	(Guitar2)
G|-2----5----5----5----2----3|-2----5----5----5----2-----|
D|-2----5----3----5----0----3|-2----5----3----5----04433-|
A|-0----3---------3---------1|-0----3---------3-----2211-|

d|-------------------------|------------------------|
a|-------------------------|------------------------|
F|-16-16-14-14-19-19-21-/23|-16-16-14-14-14---------|	
C|-xx-xx-xx-xx-xx-xx-xx--xx|-xx-xx-xx-xx-xx-16-17-14|	  (Guitar1)  
G|-14-14-12-12-17-17-19-/21|-14-14-12-12-12-xx-xx-xx|
D|-------------------------|----------------14-15-12|
A|-------------------------|------------------------|

Verse1(Guitar2) and Chorus(Guitar1)
d|------------------|
a|------------------|
F|------------------|
C|------------------|	(Guitar2)
G|------------------|
D|-2-3--------------|
A|-0-1-0-3-1-0-0-1h2|

d|-------------------------|------------------------|
a|-------------------------|------------------------|
F|-16-16-14-14-19-19-21-/23|-16-16-14-14-14---------|	
C|-xx-xx-xx-xx-xx-xx-xx--xx|-xx-xx-xx-xx-xx-16-17-14|	  (Guitar1)  
G|-14-14-12-12-17-17-19-/21|-14-14-12-12-12-xx-xx-xx|
D|-------------------------|----------------14-15-12|
A|-------------------------|------------------------|

Outro:
d|------------------|
a|------------------|
F|------------------|       (Guitar2)
C|------------------|	    Every second time bend up the 4 till 6	
G|------------------|			
D|------------------|
A|-0-0-12-0-0-0-0-0-|
			      
d|----------------------|-----------------------|
a|----------------------|-----------------------|
F|-16-16-16-16-16-16-17-|-16-16-16-16-16-16-17^-|
C|-xx-xx-xx-xx-xx-xx-xx-|-xx-xx-xx-xx-xx-xx-xx--|	(Guitar1)
G|-14-14-14-14-14-14-15-|-14-14-14-14-14-14-15^-|	
D|----------------------|-----------------------|
A|----------------------|-----------------------|

Last fill:
d|------------------|
a|------------------|
F|------------------|       
C|------------------|	(Guitar2)  			
G|------------------|			
D|------------------|
A|-0-0-12-0-0-0-0-0-|

d|----------------------------|
a|----------------------------|
F|-16-16-16-16-16-16-17^\\\12-|
C|-xx-xx-xx-xx-xx-xx-xx----xx-|	(Guitar1)
G|-14-14-14-14-14-14-15^\\\10-|	
D|----------------------------|
A|----------------------------|

https://tabs.ultimate-guitar.com/k/korn/here_to_stay_ver8_tab.htm