Tablature guitare : Korn – Coming Undone

Tuning: Drop D Tuning (D,A,D,G,B,E)

[Intro/Verse]
E|----------------------------------| x4
B|----------------------------------|
G|----------------------------------|
D|-000-0-000-0-000-0-000-0-000-0-0--|
A|-000-0-000-0-000-0-000-0-000-0-0--|
D|-000-0-000-0-000-0-000-0-000-0-0--|

[Pre-Chorus]
E|-------------------------------------------| x2
B|-----------------9~-------------------9~---|
G|-77--33----------7~---77--33-------7-------|
D|-77--11--33--00--0----55--11--33--00-------|
A|-55--11--33--00--0----55--11--33--00-------|
D|---------33--00--0------------33--00-------|

[Chorus]
E|---------------------------------------------------------------------| x2
B|---------------------------------------------------------------------|
G|-7----------------7----------------7----------------7-----------5-5--|
D|-7---0-0-1-1-3-1--7---0-0-1-1-4-1--7---0-0-1-1-4-1--7---0-0-1-1-5-5--|
A|-5---0-0-1-1-3-1--5---0-0-1-1-4-1--5---0-0-1-1-4-1--5---0-0-1-1-3-3--|
D|-0---0-0-1-1-3-1--0---0-0-1-1-4-1--0---0-0-1-1-4-1--0---0-0-1-1------|

[Bridge]
E|-----------------------| 
B|-----------------------|  
G|-X--X--X--XXX--X--X----|  
D|-X--X--X--XXX--X--X----|  
A|-X--X--X--XXX--X--X----|
D|-X--X--X--XXX--X--X----|
  (rest fingers on strings)

[Intro/Verse]
E|----------------------------------| x4
B|----------------------------------|
G|----------------------------------|
D|-000-0-000-0-000-0-000-0-000-0-0--|
A|-000-0-000-0-000-0-000-0-000-0-0--|
D|-000-0-000-0-000-0-000-0-000-0-0--|

[Pre-Chorus]
E|-------------------------------------------| x2
B|-----------------9~-------------------9~---|
G|-77--33----------7~---77--33-------7-------|
D|-77--11--33--00--0----55--11--33--00-------|
A|-55--11--33--00--0----55--11--33--00-------|
D|---------33--00--0------------33--00-------|

[Chorus]
E|---------------------------------------------------------------------| x2
B|---------------------------------------------------------------------|
G|-7----------------7----------------7----------------7-----------5-5--|
D|-7---0-0-1-1-3-1--7---0-0-1-1-4-1--7---0-0-1-1-4-1--7---0-0-1-1-5-5--|
A|-5---0-0-1-1-3-1--5---0-0-1-1-4-1--5---0-0-1-1-4-1--5---0-0-1-1-3-3--|
D|-0---0-0-1-1-3-1--0---0-0-1-1-4-1--0---0-0-1-1-4-1--0---0-0-1-1------|

[Solo]
E|-----------------------------------------------------------|       
B|-----------------------------------------------------------|       
G|-6~-22-33-44-6~-22-33-44-6~-22-33-44-6~-22-33-44-----------|
D|-6~-22-33-44-6~-22-33-44-6~-22-33-44-6~-22-33-44-7-7-------|
A|----00-00-00----00-00-00----00-00-00----00-00-00-7-7-------|
D|-------------------------------------------------7-7-------|

E|-----------------------------------------------------------|
B|-----------------------------------------------------------|
G|-----------------------------------------------------------|
D|-12-11--11-10-9-8---8-10-77--12-11--11-10-9-8---8-10-7-7---|
A|-12-11--11-10-9-8---8-10-77--12-11--11-10-9-8---8-10-7-7---|
D|-12-11--11-10-9-8---8-10-77--12-11--11-10-9-8---8-10-7-7---|

E|-----------------------------------------------------------|
B|-----------------------------------------------------------|
G|-----------------------------------------------------------|
D|-12-11--11-10-9-8---8-10-77--12-11--11-10-9-8--------------|
A|-12-11--11-10-9-8---8-10-77--12-11--11-10-9-8--------------|
D|-12-11--11-10-9-8---8-10-77--12-11--11-10-9-8--------------|

[Chorus]
E|---------------------------------------------------------------------| x2
B|---------------------------------------------------------------------|
G|-7----------------7----------------7----------------7-----------5-5--|
D|-7---0-0-1-1-3-1--7---0-0-1-1-4-1--7---0-0-1-1-4-1--7---0-0-1-1-5-5--|
A|-5---0-0-1-1-3-1--5---0-0-1-1-4-1--5---0-0-1-1-4-1--5---0-0-1-1-3-3--|
D|-0---0-0-1-1-3-1--0---0-0-1-1-4-1--0---0-0-1-1-4-1--0---0-0-1-1------|

[Outro]
E|-------------------| 
B|-------------------|  
G|-2-3-2-3-2-3-2-3---|  
D|-2-3-2-3-2-3-2-3---|  
A|-0-1-0-1-0-1-0-1---|
D|-------------------|
Suggest correction

https://tabs.ultimate-guitar.com/k/korn/coming_undone_ver2_tab.htm