Tablature guitare : John Mayer – Human Nature

-------------------------------------------------------------------------------
                       Human Nature – John Mayer
-------------------------------------------------------------------------------
Tabbed by: SamtheMan
Email:georizzo@yahoo.com

Tuning: E A D G B e (standard)

The cover of human nature as performed by john mayer at michael jackson’s funeral
I saw it on tv and wanted to tab it out while simultaneously learning it. Basically I tabbed
out by watching the video on youtube and figuring it out by ear. Some parts got obscured 
the backup band but I tried to make out as much as possible. So here’s the whole
from start to finish for whoever wants it. If there are any questions, or comments, 
corrections, email me.

e|---------------------------------------------------------------------------|
B|-------3--------------------------3----------------------------------------|
G|-3/4-----6~~-2h4p2--------------4---4/6p4-4-2h4~2h4p2~~~----2--------------|
D|-------------------3/4p2-2--------------------------------4----------------|
A|---------------------------5p2---------------------------------------------|
E|-----3--5-5-2----2-3-3--------33------5---------------2-3------------------|

e|---------------------------------------------------------------------------|
B|-----3-----5---------------------------------------------------------------|
G|-----4-----6-----2h4p2-----------------------------------------------------|
D|-----------------------2/4--2p0-0h2p0--------------------------------------|
A|---------------------------------------------------------------------------|
E|-3~----5~~----2~-----------3-----------------------------------------------|

e|---------------------------------5-----------------------------------------|
B|------3--5~-5h7-3-3-3~--------3--5-5---------------------------------------|
G|----4-4--6~-6---4-2-4~-2h4-2--4----6----------11p9-------------------------|
D|----5---------------------------------------------12-7/6-------------------|
A|---------------------------------------------------------9-7---------------|
E|-3~------5------2---3---------3----5-/15-14\--10-----7---------------------|

e|---------------------------------------------------------------------------|
B|----5-5----------------------3-5-5-----------------------------------------|
G|-4----6--7-7h9p7-------------4---6—6p4----11p9---7-6-----------------------|
D|-----------------9~~--7-9-7------------7------12-----9-7-------------------|
A|----------------------7-9-7------------------------------------------------|
E|-3----5----7------7-7--------3---5--------10-----7-------------------------|

e|---------------------------------------------------------------------------|
B|-3-5\--3-3p5h3-p0-3------2~~3\---------------------------------------------|
G|-4-6\-------------0--------------------------------------------------------|
D|----------------------5----------------------------------------------------|
A|--------------------0------------------------------------------------------|
E|-3-5\---0-0-0-00---0-------------------------------------------------------|

Turn the volume up to put some sustain in the tone
e|---------------------------------------------------------------------------|
B|-15~\10~~---15~\10~~------------------------------------5\3----------------|
G|----------------------2/4/7\6~~\2~-2h4-2------------4/6------6\4--6\4--2h4-|
D|-----------------------------------------3/4-2-2---------------------------|
A|-------------------------------------------------5~------------------------|
E|---------------------------------------------------------------------------|

e|---------------------------------------------------------------------------|
B|-------------------3------------------------------------3-3/5-5b7-b7-3h5p3~|
G|-4~4b5p2~~-2----4----4/7\4~~p2—2h4-2-----------------2h4-------------------|
D|-------------4-----------------------3/4-2-2h4p2---------------------------|
A|------------------------------------------5-----5p2------------------------|
E|---------------------------------------------------5-----------------------|

e|---------------------------------------------------------------------------|
B|---3~3--3-------------------------3----------------------------------------|
G|-2------2h4-2-----------------3/4---4/6---6\4--6\4~~p2-2h4-2h4p2~~--2------|
D|--------------3/4-2-2h4p2-----------------------------------------4---4----|
A|-------------------5-----5p2-----------------------------------------------|
E|---------------------------------------------------------------------------|

e|---------------------------------------------------------------------------|
B|---3------------------------------------3/5~~/7~~/10~~\3~~-----------------|
G|-4---4/6\4~~-2h4-2------------------2h4------------------------------------|
D|-------------------2h4~2--2h4p2~-------------------------------------------|
A|------------------------5--------5-----------------------------------------|
E|---------------------------------------------------------------------------|

e|---------------------------------------------------------------------------|
B|---------------------------------------------------------------------------|
G|-2h4p2-2h4~~4/6\2/6---11p9----------------------4/6\--7-7-7h9p7---11-9-11--|
D|---------------------------12-11-12-11-9-----9\-5/7\-----------9-----------|
A|-----------------------------------------12—10\----------------------------|
E|---------------------------------------------------------------------------|

e|---------------------------------------------------------------------------|
B|------------------------------10-------------------------------------------|
G|-777-9---------9----9---------11-11----------------4--6--7-7h9p7-----------|
D|-----11-111111-11p9-11p9------------11-12-11-9-----5--7----------9~~~------|
A|------------------------12---------------------12--------------------------|
E|---------------------------------------------------------------------------|

e|-----------------------------------------------------------10--------------|
B|-12~~15-12b14-b14r12p10~~---10h12-10------------------10h12---12b14--------|
G|-------------------------------------9/11-9----9~~-------------------------|
D|--------------------------------------------12----12-----------------------|
A|---------------------------------------------------------------------------|
E|---------------------------------------------------------------------------|

e|------------------------------10------------12------10---------------10h12-|
B|-12pb14r12p10-10h12p10~~---12----12b14-b14~b14—10h12-----------10h12-------|
G|--------------------------------------------------------9-9p7--------------|
D|---------------------------------------------------------------------------|
A|---------------------------------------------------------------------------|
E|---------------------------------------------------------------------------|

e|-12b14r12-10~~------------------------------12b14r12-10--------------------|
B|----------------10h12-10—12—12b14-b14r12p10~--------------12/14b15r14-12-10|
G|---------------------------------------------------------------------------|
D|---------------------------------------------------------------------------|
A|---------------------------------------------------------------------------|
E|---------------------------------------------------------------------------|

e|-----------------10-10h12--------------------------------------------------|
B|-12~-12b14-b14------------12~p10----10h12-10--12-12b14-b14r10--------------|
G|--------------------------------11-----------------------------------------|
D|---------------------------------------------------------------------------|
A|---------------------------------------------------------------------------|
E|---------------------------------------------------------------------------|

e|-12b15-b15-b15r12-10-----------------10-10h12p10----10-10-10h12p10---------|
B|------------------------12b14r12-10-------------12~-----------------12-----|
G|---------------------------------------------------------------------------|
D|---------------------------------------------------------------------------|
A|---------------------------------------------------------------------------|
E|---------------------------------------------------------------------------|

e|-10-10-10h12p10------------------------------------------------------------|
B|----------------12---10h12~b15-b15~~r10~~----15\10~~--15\10~~--------------|
G|---------------------------------------------------------------------------|
D|---------------------------------------------------------------------------|
A|---------------------------------------------------------------------------|
E|---------------------------------------------------------------------------|

e|---------------------------------------------------------------------------|
B|-10b13~r10-10p8h10---------------------------------------------------------|
G|---------------------------------------------------------------------------|
D|---------------------------------------------------------------------------|
A|---------------------------------------------------------------------------|
E|---------------------------------------------------------------------------|

Grab a pick now and play
e|-15b17r15p13--15b17-b17---13-15b17-b17---15b17r15p13--15b17-b17—pb17r-13---|
B|------------15------------15------------------------15------------------15-|
G|---------------------------------------------------------------------------|
D|---------------------------------------------------------------------------|
A|---------------------------------------------------------------------------|
E|---------------------------------------------------------------------------|

e|-----------------13-15b17-b17---------15b17-b18-b18---15b18r15-13-b18-b18--|
B|-p13h15~~--15-13----------------15-15--------------------------------------|
G|---------------------------------------------------------------------------|
D|---------------------------------------------------------------------------|
A|---------------------------------------------------------------------------|
E|---------------------------------------------------------------------------|

e|-15b18r15p13---15b18-b18---15-----------18-15h17p15------------------------|
B|------------15-------------18b20---18b22-----------18p15~~15~15------------|
G|----------------------------------------------------------------17---------|
D|---------------------------------------------------------------------------|
A|---------------------------------------------------------------------------|
E|---------------------------------------------------------------------------|

e|---------------------------------------------------------------------------|
B|-18b20-b20r18-15---18b20-b20r18p15--18b20-b20r18p15---18b20r18b22~~--------|
G|---------------------------------------------------------------------------|
D|---------------------------------------------------------------------------|
A|---------------------------------------------------------------------------|
E|---------------------------------------------------------------------------|

e|-----------14--------------------------------------------------------------|
B|-16b17-b17----15~~~--------------------------------------------------------|
G|---------------------------------------------------------------------------|
D|---------------------------------------------------------------------------|
A|---------------------------------------------------------------------------|
E|---------------------------------------------------------------------------|



************************************

| h   Hammer-on
| p   Pull-off
| r   Release
| b   Bend
| pb  Pre-bend
| /   Slide up
| \   Slide down
| ~   Vibrato

************************************
Suggest correction

https://tabs.ultimate-guitar.com/j/john_mayer/human_nature_ver2_tab.htm