Tablature guitare : John Mayer – Gravity

Hi Guys, 

my first submitted tab. I didn't agree with the other tabs so here is mine.
Play it with feel and to get the timing right check it with the song.
If you have any comments you can mail me at: maikel_meijer@hotmail.com


   2:08
e|---------------------------------------------------------|
B|-10h12s15~—15s12p10-12~----10h12s17-15-------12----------|
G|--------------------------------------16s14----12--------|
D|---------------------------------------------------------|
A|---------------------------------------------------------|
E|---------------------------------------------------------|

   2:19
e|-------19~--------17~-----------19-------17--------------|
B|-15-17------15-17---------15-17----15-17-----------------|
G|---------------------------------------------------------|
D|---------------------------------------------------------|
A|---------------------------------------------------------|
E|---------------------------------------------------------|

   2:27                                          2:32
e|-------19b~~(15)-----------------------------------------|
B|-15-17----------15~~-(12)-------15s17-----------13s15s13-|
G|-------------------------14s16~~------16s14---12---------|
D|---------------------------------------------------------|
A|---------------------------------------------------------|
E|---------------------------------------------------------|



************************************

| (n)  Ghost note
| h    Hammer-on
| p    Pull-off
| ~    Vibrato
| s    Slap

************************************