Tablature guitare : John Mayer – Daughters

Daughters 
Words and Music by John Mayer
Album: Heavier Things

Transcribed by: Gabe and Andrew
Email:SupraSlick15_14@Juno.com
AIM:JMFan70

This is a really simple song, I watched him play this live and I tabbed it from that,
some parts are simplified but they sound exactly the same as what he plays!! There are
2 guitar parts if you get a friend to play along it sounds just like the album. We have
also included the timing so you can sing along with it if you'd like. Im positive its 100% right!


[Intro]

(Backup Guitar) 

Acoustic Steel String 
e|--------------------|
B|-7------------------|
G|-7---7---7---7------|
D|-7---5---5---4------|
A|-x---x---0---5------|
E|-7---0---x---x------|
  T           ^John uses his pinky on the 7
123 <----timing
about 3 strums per note


(Lead Guitar) 

Acoustic Steel String
e|-------------------------------------------------------------------------|
B|-------------------------8---8----7~-------------------------------------|
G|------------12~----0----------------------------------------9~--11h12p11-|
D|---9~-----12------11--11---11--11-------9--11h12-9~---11h12--------------|
A|--9-----12---------------------------------------------------------------|
E|-7-----------------------------------------------------------------------|


[Verse 1&2]

(Lead Guitar) 
e|----------------------|
B|-7--------------------|
G|-7---7---7---7--------|
D|-7---5---5---4--------|
A|-x---x---0---5--------|
E|-7---0---x---x--------|
  T

  
[Chorus]

e|--------------------------|
B|-7------------------------|
G|-7---7---7---7------------|
D|-7---6---5---4------------|
A|-x---x---0---5------------|
E|-7---0---x---x------------|
  T


[Solo]

(After first chorus)

e|-----------------------------------|
B|-----------------------------------|
G|--------7~--------------------9-7~-|
D|--9----9------9/11h12p11----7------|
A|-----10----------------------------|
E|-----------------------------------|
During solo verse is played precussivley


[Verse 2]

(played with the same notes as verse 1 but played percussivley)


e|----------------------|
B|-7--------------------|
G|-7---7---7---7--------|
D|-7---5---5---4--------|
A|-x---x---0---5--------|
E|-7---0---x---x--------|
  T


[Chorus]

e|--------------------------|
B|-7------------------------|
G|-7---7---7---7------------|
D|-7---6---5---4------------|
A|-x---x---0---5------------|
E|-7---0---x---x------------|
  T


[Bridge]

(Lead Guitar)
e|-------------------------------|
B|-10---8---7h8p7-7---7--5--7----|
G|--9---9---7-----7---6--6--7----|
D|-10---8---7-----7---5--5--7----|
A|--x-----------------------x----|
E|-10-----------------------7----|
  T^(Boys you can..) ^(Find out how much..)

  
[Bridge Part II]

(Lead Guitar)
e|-x--x---5---0-0-0-0-------|
B|-3--3---3---2-3-5-7-------|
G|-0--2---3---0-0-0-0-------|
D|-x--0---3---2-4-5-7-------|
A|-2--x---x---0-0-0-0-------|
E|-0--2---3-----------------|
     T   T
(Boys will be strong....)

After above part play chorus as outro


[Outro]

e|--------------------------|
B|-7------------------------|
G|-7---7---7---7------------|
D|-7---6---5---4------------|
A|-x---x---0---5------------|
E|-7---0---x---x------------|
  T

  
  
**********************************************************
|h  Hammer On
|p  Pull Off
|/  Slide Up
|\  Slide Down
|~  Vibrato
|x  Mute String
|T  Thumb (John uses that alot in his songs)
***********************************************************


Enjoy this song it took a while to tab out to perfection!! 🙂

https://tabs.ultimate-guitar.com/j/john_mayer/daughters_tab.htm