Tablature guitare : John Mayer – Another Kind Of Green

You don't have to use ur thumbs, but it is easier!


[Intro]

e|-----------------------------------------0-------------0---|
B|-----4---------2-------(4)---------------0-------------0---|
G|-----4h6p4-----3h4p3----4-----4----------6----------9/11---|
D|-----6----6----4----4---4-----4----------7----------7/-9---|
A|------------------------2--/6------------x-----7-9--9/11---|
E|---4---------2------------------0-/4-8---5--/9---------0---|
    T         T                     T     T

[Verse]

e|--------------------------------------0---|
B|-----4-----------2-------(4)----------0---|
G|-----4h6p4-------3--------4-----4----11---|
D|-----6----6------4--------4-----4-----9---|
A|------------------------1-2--/6------11---|
E|---4-----------2------4------------0------|


[Pre-Chorus]

e|--------------- ---------------|
B|--4h5--4---2--- ---4h5---------|
G|--4----4---3--- ---4-----9-----|
D|--4h6--6---4--- ---4h6---9-----|
A|--4----x---x--- ---4-----9h11--|
E|-------4---2--- ---------0-----|


[Chorus]

e|----------------------------------------0-------------0---|
B|-----4--------2-------(4)---------------0-------------0---|
G|-----4h6p4----3h4p3----4-----4----------6----------9/11---|
D|-----6----6---4----4---4-----4----------7----------7/-9---|
A|-----------------------2--/6------------x-----7-9--9/11---|
E|---4---------2------------------0-/4-8--5--/9---------0---|

"I'm on the right side.."

e|---0-------------0---|
B|---0-------------0---|
G|---6----------9/11---|
D|---7----------7/-9---|
A|---x-----7-9--9/11---|
E|---5--/9---------0---|


[Bridge]

e|----0----0---|
B|----0----0---|
G|---13---11---|
D|---11----9---|
A|---12---11---|
E|---------0---|

[Outro]

e|-----------------------------------------5-----------|
B|7-7-7------------------------------------5---------0-|
G|6-8-6-6-6--4-4-4-------------------------6---------11|
D|------9-6--4-6-4----------4--------------7---------9-|
A|-----------------6-4--4/6---6-4\2--------------7-9-11|
E|-----------------------------------0-4-7-5--/9-----0-|

************************************

| x    Dead note
| (n)  Ghost note
| h    Hammer-on
| p    Pull-off
| /    Slide up
| T    Thumb     

************************************

Commentaire : 

E|-0-/4-8--| is what you have at one point in the intro. But I believe that the 8 should be a 7. 
E|-0-/4-7--| 
Sounds great so far, nice job.

https://tabs.ultimate-guitar.com/j/john_mayer/another_kind_of_green_tab.htm