Tablature guitare : Green Day – Basket Case

[VERSE 1] - play once chugged (palm muted) and then play open about one in four!
 e|-----------------|-----------------|-----------------|-----------------|
 B|-----------------|-----------------|-----------------|-----------------|
 G|-9-9-9-9-9-9-9-9-|-----------------|-6-6-6-6-6-6-6-6-|-----------------|
 D|-9-9-9-9-9-9-9-9-|-9-9-9-9-9-9-9-9-|-6-6-6-6-6-6-6-6-|-6-6-6-6-6-6-6-6-|
 A|-7-7-7-7-7-7-7-7-|-9-9-9-9-9-9-9-9-|-4-4-4-4-4-4-4-4-|-6-6-6-6-6-6-6-6-|
 E|-----------------|-7-7-7-7-7-7-7-7-|-----------------|-4-4-4-4-4-4-4-4-|

 e|-----------------|-----------------|-----------------|-----------------|
 B|-----------------|-----------------|-----------------|-----------------|
 G|-----------------|-9-9-9-9-9-9-9-9-|-----------------|-----------------|
 D|-7-7-7-7-7-7-7-7-|-9-9-9-9-9-9-9-9-|-9-9-9-9-9-9-9-9-|-9-9-9-9-9-9-9-9-|
 A|-7-7-7-7-7-7-7-7-|-7-7-7-7-7-7-7-7-|-9-9-9-9-9-9-9-9-|-9-9-9-9-9-9-9-9-|
 E|-5-5-5-5-5-5-5-5-|-----------------|-7-7-7-7-7-7-7-7-|-7-7-7-7-7-7-7-7-|
  

[CHORUS] - play once, the first two parts chugged and then play open by the end!
 e|-----------------|-----------------|-----------------|-----------------|
 B|-----------------|-----------------|-----------------|-----------------|
 G|-----------------|-----------------|-9-9-9-9-9-9-9-9-|-9-9-9-9-9-9-9-9-|
 D|-7-7-7-7-7-7-7-7-|-9-9-9-9-9-9-9-9-|-9-9-9-9-9-9-9-9-|-9-9-9-9-9-9-9-9-|
 A|-7-7-7-7-7-7-7-7-|-9-9-9-9-9-9-9-9-|-7-7-7-7-7-7-7-7-|-7-7-7-7-7-7-7-7-|
 E|-5-5-5-5-5-5-5-5-|-7-7-7-7-7-7-7-7-|-----------------|-----------------|

 e|-----------------|-----------------|-----------------|-----------------|
 B|-----------------|-----------------|-----------------|-----------------|
 G|-----------------|-----------------|-9-9-9-9-9-9-9-9-|-9-9-9-9-9-9-9-9-|
 D|-7-7-7-7-7-7-7-7-|-9-9-9-9-9-9-9-9-|-9-9-9-9-9-9-9-9-|-9-9-9-9-9-9-9-9-|
 A|-7-7-7-7-7-7-7-7-|-9-9-9-9-9-9-9-9-|-7-7-7-7-7-7-7-7-|-7-7-7-7-7-7-7-7-|
 E|-5-5-5-5-5-5-5-5-|-7-7-7-7-7-7-7-7-|-----------------|-----------------|
                                       
 e|-----------------|-----------------|-----------------|-----------------|
 B|-----------------|-----------------|-----------------|-----------------|
 G|-----------------|-----------------|-9-9-7-7-6-6-6-6-|-----------------|
 D|-7-7-7-7-7-7-7-7-|-9-9-9-9-9-9-9-9-|-9-9-7-7-6-6-6-6-|-6-6-6-6-7-7-7-7-|
 A|-7-7-7-7-7-7-7-7-|-9-9-9-9-9-9-9-9-|-7-7-5-5-4-4-4-4-|-6-6-6-6-7-7-7-7-|
 E|-5-5-5-5-5-5-5-5-|-7-7-7-7-7-7-7-7-|-----------------|-4-4-4-4-5-5-5-5-|


MAIN RIFF -play open twice
 e|---------------|
 B|---------------|
 G|---------------|
 D|-9-4-4-6-6-4-4-|
 A|-9-4-4-6-6-4-4-|
 E|-7-2-2-4-4-2-2-|


[VERSE 2] - play open twice
 e|-----------------|-----------------|-----------------|-----------------|
 B|-----------------|-----------------|-----------------|-----------------|
 G|-9-9-9-9-9-9-9-9-|-----------------|-6-6-6-6-6-6-6-6-|-----------------|
 D|-9-9-9-9-9-9-9-9-|-9-9-9-9-9-9-9-9-|-6-6-6-6-6-6-6-6-|-6-6-6-6-6-6-6-6-|
 A|-7-7-7-7-7-7-7-7-|-9-9-9-9-9-9-9-9-|-4-4-4-4-4-4-4-4-|-6-6-6-6-6-6-6-6-|
 E|-----------------|-7-7-7-7-7-7-7-7-|-----------------|-4-4-4-4-4-4-4-4-|

 e|-----------------|-----------------|-----------------|-----------------|
 B|-----------------|-----------------|-----------------|-----------------|
 G|-----------------|-9-9-9-9-9-9-9-9-|-----------------|-----------------|
 D|-7-7-7-7-7-7-7-7-|-9-9-9-9-9-9-9-9-|-9-9-9-9-9-9-9-9-|-9-9-9-9-9-9-9-9-|
 A|-7-7-7-7-7-7-7-7-|-7-7-7-7-7-7-7-7-|-9-9-9-9-9-9-9-9-|-9-9-9-9-9-9-9-9-|
 E|-5-5-5-5-5-5-5-5-|-----------------|-7-7-7-7-7-7-7-7-|-7-7-7-7-7-7-7-7-|


[CHORUS] - play once, all open!
 e|-----------------|-----------------|-----------------|-----------------|
 B|-----------------|-----------------|-----------------|-----------------|
 G|-----------------|-----------------|-9-9-9-9-9-9-9-9-|-9-9-9-9-9-9-9-9-|
 D|-7-7-7-7-7-7-7-7-|-9-9-9-9-9-9-9-9-|-9-9-9-9-9-9-9-9-|-9-9-9-9-9-9-9-9-|
 A|-7-7-7-7-7-7-7-7-|-9-9-9-9-9-9-9-9-|-7-7-7-7-7-7-7-7-|-7-7-7-7-7-7-7-7-|
 E|-5-5-5-5-5-5-5-5-|-7-7-7-7-7-7-7-7-|-----------------|-----------------|

 e|-----------------|-----------------|-----------------|-----------------|
 B|-----------------|-----------------|-----------------|-----------------|
 G|-----------------|-----------------|-9-9-9-9-9-9-9-9-|-9-9-9-9-9-9-9-9-|
 D|-7-7-7-7-7-7-7-7-|-9-9-9-9-9-9-9-9-|-9-9-9-9-9-9-9-9-|-9-9-9-9-9-9-9-9-|
 A|-7-7-7-7-7-7-7-7-|-9-9-9-9-9-9-9-9-|-7-7-7-7-7-7-7-7-|-7-7-7-7-7-7-7-7-|
 E|-5-5-5-5-5-5-5-5-|-7-7-7-7-7-7-7-7-|-----------------|-----------------|
                                       
 e|-----------------|-----------------|-----------------|-----------------|
 B|-----------------|-----------------|-----------------|-----------------|
 G|-----------------|-----------------|-9-9-7-7-6-6-6-6-|-----------------|
 D|-7-7-7-7-7-7-7-7-|-9-9-9-9-9-9-9-9-|-9-9-7-7-6-6-6-6-|-6-6-6-6-7-7-7-7-|
 A|-7-7-7-7-7-7-7-7-|-9-9-9-9-9-9-9-9-|-7-7-5-5-4-4-4-4-|-6-6-6-6-7-7-7-7-|
 E|-5-5-5-5-5-5-5-5-|-7-7-7-7-7-7-7-7-|-----------------|-4-4-4-4-5-5-5-5-|


MAIN RIFF -play open four times!
 e|---------------|
 B|---------------|
 G|---------------|
 D|-9-4-4-6-6-4-4-|
 A|-9-4-4-6-6-4-4-|
 E|-7-2-2-4-4-2-2-|


[BRIDGE] - play open once!
 e|-----------------|-----------------|-----------------|---|
 B|-----------------|-----------------|-----------------|---|
 G|-----------------|-----------------|-9-9-9-9-9-9-9-9-|-9-|
 D|-7-7-7-7-7-7-7-7-|-9-9-9-9-9-9-9-9-|-9-9-9-9-9-9-9-9-|-9-|
 A|-7-7-7-7-7-7-7-7-|-9-9-9-9-9-9-9-9-|-7-7-7-7-7-7-7-7-|-7-|
 E|-5-5-5-5-5-5-5-5-|-7-7-7-7-7-7-7-7-|-----------------|---|


[BREAK] - its the same as the verse, all open twice!
 e|-----------------|-----------------|-----------------|-----------------|
 B|-----------------|-----------------|-----------------|-----------------|
 G|-9-9-9-9-9-9-9-9-|-----------------|-6-6-6-6-6-6-6-6-|-----------------|
 D|-9-9-9-9-9-9-9-9-|-9-9-9-9-9-9-9-9-|-6-6-6-6-6-6-6-6-|-6-6-6-6-6-6-6-6-|
 A|-7-7-7-7-7-7-7-7-|-9-9-9-9-9-9-9-9-|-4-4-4-4-4-4-4-4-|-6-6-6-6-6-6-6-6-|
 E|-----------------|-7-7-7-7-7-7-7-7-|-----------------|-4-4-4-4-4-4-4-4-|

 e|-----------------|-----------------|-----------------|-----------------|
 B|-----------------|-----------------|-----------------|-----------------|
 G|-----------------|-9-9-9-9-9-9-9-9-|-----------------|-----------------|
 D|-7-7-7-7-7-7-7-7-|-9-9-9-9-9-9-9-9-|-9-9-9-9-9-9-9-9-|-9-9-9-9-9-9-9-9-|
 A|-7-7-7-7-7-7-7-7-|-7-7-7-7-7-7-7-7-|-9-9-9-9-9-9-9-9-|-9-9-9-9-9-9-9-9-|
 E|-5-5-5-5-5-5-5-5-|-----------------|-7-7-7-7-7-7-7-7-|-7-7-7-7-7-7-7-7-|


[CHORUS] - play once, chugged but open by the end!
 e|-----------------|-----------------|-----------------|-----------------|
 B|-----------------|-----------------|-----------------|-----------------|
 G|-----------------|-----------------|-9-9-9-9-9-9-9-9-|-9-9-9-9-9-9-9-9-|
 D|-7-7-7-7-7-7-7-7-|-9-9-9-9-9-9-9-9-|-9-9-9-9-9-9-9-9-|-9-9-9-9-9-9-9-9-|
 A|-7-7-7-7-7-7-7-7-|-9-9-9-9-9-9-9-9-|-7-7-7-7-7-7-7-7-|-7-7-7-7-7-7-7-7-|
 E|-5-5-5-5-5-5-5-5-|-7-7-7-7-7-7-7-7-|-----------------|-----------------|

 e|-----------------|-----------------|-----------------|-----------------|
 B|-----------------|-----------------|-----------------|-----------------|
 G|-----------------|-----------------|-9-9-9-9-9-9-9-9-|-9-9-9-9-9-9-9-9-|
 D|-7-7-7-7-7-7-7-7-|-9-9-9-9-9-9-9-9-|-9-9-9-9-9-9-9-9-|-9-9-9-9-9-9-9-9-|
 A|-7-7-7-7-7-7-7-7-|-9-9-9-9-9-9-9-9-|-7-7-7-7-7-7-7-7-|-7-7-7-7-7-7-7-7-|
 E|-5-5-5-5-5-5-5-5-|-7-7-7-7-7-7-7-7-|-----------------|-----------------|
                                       
 e|-----------------|-----------------|-----------------|-----------------|
 B|-----------------|-----------------|-----------------|-----------------|
 G|-----------------|-----------------|-9-9-7-7-6-6-6-6-|-----------------|
 D|-7-7-7-7-7-7-7-7-|-9-9-9-9-9-9-9-9-|-9-9-7-7-6-6-6-6-|-6-6-6-6-7-7-7-7-|
 A|-7-7-7-7-7-7-7-7-|-9-9-9-9-9-9-9-9-|-7-7-5-5-4-4-4-4-|-6-6-6-6-7-7-7-7-|
 E|-5-5-5-5-5-5-5-5-|-7-7-7-7-7-7-7-7-|-----------------|-4-4-4-4-5-5-5-5-|


[OUTRO] - all open once... and thats about it! enjoy! x
 e|-----------------|-----------------|
 B|-----------------|-----------------|
 G|-9-9-9-9-6-6-6-6-|-----9-9---------|
 D|-9-9-9-9-6-6-6-6-|-7-7-9-9-9-9-9-9-|
 A|-7-7-7-7-4-4-4-4-|-7-7-7-7-9-9-9-9-|
 E|-----------------|-5-5-----7-7-7-7-|

Source : https://tabs.ultimate-guitar.com/g/green_day/basket_case_ver4_tab.htm