Tablature guitare : Foo Fighters – Times Like These

C x 3 2 0 1 3 
Em7 0 2 2 0 3 0 
Dadd4 x 5 4 0 3 5 


Gtr I (E A D G B E) - 'Clean Guitar'
Gtr II (E A D G B E) - 'Distorted Guitar 1'
Gtr III (E A D G B E) - 'Distorted Guitar 2'
Gtr IV (E A D G B E) - 'Distorted Guitar 3'


[Intro]

 Fast Rock Q=146
    D7
   4/4
    Gtr I
    
e||-5-5-5-5-5--5-5-|-5-5-5--5-5-5---|-5-5-5-5-5--5-5-|-5-5-5--5-5-5----||
B||-3-3-3-3-3--3-3-|-3-3-3--3-3-3---|-3-3-3-3-3--3-3-|-3-3-3--3-3-3----||
G||-5-5-5-5-5--5-5-|-5-5-5--5-5-5---|-5-5-5-5-5--5-5-|-5-5-5--5-5-5----||
D||-0-0-0-0-0--0-0-|-0-0-0--0-0-0---|-0-0-0-0-0--0-0-|-0-0-0--0-0-0----||
A||-0-5-5-0-5--0-5-|-5-0-5--0-5-5---|-0-5-5-0-5--0-5-|-5-0-5--0-5-5----||
E||----------------|----------------|----------------|-----------------||

  D
                           3/4
  Gtr II
e|-------------------------|-------------------|
B|-------------------------|-------------------|
G|-------------12-11-------|-------12-11-------|
D|--0-12-10--0--------0-12-|-10--0-------------|
A|-------------------------|-------------12-10-|
E|-------------------------|-------------------|
 |
 | Gtr III
 |  
e|-------------------------|-------------------|
B|-------------------------|-------------------|
G|-------------------------|-------------------|
D|-12-12-12-12-12-12-12-12-|-12-12-12-12-12-12-|
A|--x--x--x--x--x--x--x--x-|--x--x--x--x--x--x-|
E|-10-10-10-10-10-10-10-10-|-10-10-10-10-10-10-|


  D/C
 4/4                       3/4
e|-------------------------|-------------------|
B|-------------------------|-------------------|
G|-------------12-11-------|-------12-11-------|
D|--0-12-10--0--------0-12-|-10--0-------------|
A|-------------------------|-------------12-10-|
E|-------------------------|-------------------|
 |
 | 
e|-------------------------|-------------------|
B|-------------------------|-------------------|
G|-------------------------|-------------------|
D|-10-10-10-10-10-10-10-10-|-10-10-10-10-10-10-|
A|--x--x--x--x--x--x--x--x-|--x--x--x--x--x--x-|
E|--8--8--8--8--8--8--8--8-|--8--8--8--8--8--8-|


  Bm7
 4/4                    3/4
e|----------------------|------------------|
B|----------------------|------------------|
G|-----------12-11------|------12-11-------|
D|-0-12-10-0-------0-12-|-10-0-------------|
A|----------------------|------------12-10-|
E|----------------------|------------------|
 |
 |
e|----------------------|------------------|
B|----------------------|------------------|
G|----------------------|------------------|
D|-9--9--9-9--9--9-9--9-|--9-9--9--9--9--7-|
A|-x--x--x-x--x--x-x--x-|--x-x--x--x--x--x-|
E|-7--7--7-7--7--7-7--7-|--7-7--7--7--7--5-|


  D/F#
 4/4                    3/4
e|----------------------|-------------------|
B|----------------------|-------------------|
G|-----------12-11------|------12-11--------|
D|-0-12-10-0-------0-12-|-10-0--------------|
A|----------------------|------------12-10--|
E|----------------------|-------------------|
 |
 |
e|----------------------|-------------------|
B|----------------------|-------------------|
G|----------------------|-------------------|
D|-4--4--4-4--4--4-4--4-|--4-4--4--4--4--4--|
A|-x--x--x-x--x--x-x--x-|--x-x--x--x--x--x--|
E|-2--2--2-2--2--2-2--2-|--2-2--2--2--2--2--|


  D/C
 4/4                       3/4 
e|-------------------------|-------------------|
B|-------------------------|-------------------|
G|-------------12-11-------|-------12-11-------|
D|--0-12-10--0--------0-12-|-10--0-------------|
A|-------------------------|-------------12-10-|
E|-------------------------|-------------------|
 |
 |
e|-------------------------|-------------------|
B|-------------------------|-------------------|
G|-------------------------|-------------------|
D|-10-10-10-10-10-10-10-10-|-10-10-10-10-10-10-|
A|--x--x--x--x--x--x--x--x-|--x--x--x--x--x--x-|
E|--8--8--8--8--8--8--8--8-|--8--8--8--8--8--8-|


  Bm7
 4/4                    3/4
 
e|----------------------|-------------------|
B|----------------------|-------------------|
G|-----------12-11------|------12-11--------|
D|-0-12-10-0-------0-12-|-10-0--------------|
A|----------------------|------------12-10--|
E|----------------------|-------------------|
 |
 | 
e|----------------------|-------------------|
B|----------------------|-------------------|
G|----------------------|-------------------|
D|-9--9--9-9--9--9-9--9-|--9-9--9--9--9--7--|
A|-x--x--x-x--x--x-x--x-|--x-x--x--x--x--x--|
E|-7--7--7-7--7--7-7--7-|--7-7--7--7--7--5--|


  D/F#                                      D/C
 4/4                    3/4                4/4
  
e|----------------------|------------------|-------------------------|
B|----------------------|------------------|-------------------------|
G|-----------12-11------|------12-11-------|-------------12-11-------|
D|-0-12-10-0-------0-12-|-10-0-------------|--0-12-10--0--------0-12-|
A|----------------------|------------12-10-|-------------------------|
E|----------------------|------------------|-------------------------|
 |
 |
e|----------------------|------------------|-------------------------|
B|----------------------|------------------|-------------------------|
G|----------------------|------------------|-------------------------|
D|-4--4--4-4--4--4-4--4-|--4-4--4--4--4--4-|-10-10-10-10-10-10-10-10-|
A|-x--x--x-x--x--x-x--x-|--x-x--x--x--x--x-|--x--x--x--x--x--x--x--x-|
E|-2--2--2-2--2--2-2--2-|--2-2--2--2--2--2-|--8--8--8--8--8--8--8--8-|


                      Bm7
 3/4                 4/4
  
e|-------------------|----------------------|------------------------|
B|-------------------|----------------------|------------------------|
G|-------12-11-------|-----------12-11------|------12-11-------------|
D|-10--0-------------|-0-12-10-0-------0-12-|-10-0-------------------|
A|-------------12-10-|----------------------|------------12-10-12\---|
E|-------------------|----------------------|------------------------|
 |
 | 
e|-------------------|----------------------|------------------------|
B|-------------------|----------------------|------------------------|
G|-------------------|----------------------|------------------------|
D|-10-10-10-10-10-10-|-9--9--9-9--9--9-9--9-|--9-9--9--9--9--9--9--9-|
A|--x--x--x--x--x--x-|-x--x--x-x--x--x-x--x-|--x-x--x--x--x--x--x--x-|
E|--8--8--8--8--8--8-|-7--7--7-7--7--7-7--7-|--7-7--7--7--7--7--7--7-|


  D7
  Gtrs II, III
 
e|-5-5-5-5-5--5-5-|-5-5-5--5-5-5---|-5-5-5-5-5--5-5-|-5-5-5--5-5-5---||
B|-3-3-3-3-3--3-3-|-3-3-3--3-3-3---|-3-3-3-3-3--3-3-|-3-3-3--3-3-3---||
G|-5-5-5-5-5--5-5-|-5-5-5--5-5-5---|-5-5-5-5-5--5-5-|-5-5-5--5-5-5---||
D|-0-0-0-0-0--0-0-|-0-0-0--0-0-0---|-0-0-0-0-0--0-0-|-0-0-0--0-0-0---||
A|-0-5-5-0-5--0-5-|-5-0-5--0-5-5---|-0-5-5-0-5--0-5-|-5-0-5--0-5-5---||
E|----------------|----------------|----------------|----------------||


   Verse
    $
    D
    Gtr I
  
e||-------0-(0)-----2-|-(2)-----0-(0)-------|
B||-----3-------3-----|-----3---------3-----|
G||---2-----------2---|-------2---------2---|
D||-0-----------------|---------------------|
A||-------------------|---------------------|
E||-------------------|---------------------|
|
|   Gtr III
|  
e||-------------------|---------------------|
B||-------------------|---------------------|
G||-------------------|---------------------|
D||-7-7-7-7--7--7-7-7-|--7--7-7-7--7--7-7-7-|
A||-5-5-5-5--5--5-5-5-|--5--5-5-5--5--5-5-5-|
E||-------------------|---------------------|


  Am
e|-------3-(3)-----0-|-(0)-----3-(3)--------|
B|-------------1-----|-----1---------1------|
G|-----2---------2---|-------2--------------|
D|---2---------------|----------------------|
A|-0-----------------|-----------------2----|
E|-------------------|----------------------|
 |
 | 
e|-------------------|----------------------|
B|-------------------|----------------------|
G|-------------------|----------------------|
D|-------------------|-----------------4-4--|
A|-7-7-7-7--7--7-7-7-|--7--7-7-7--7--7-2-2--|
E|-5-5-5-5--5--5-5-5-|--5--5-5-5--5--5------|

                                          1.
  C                   Em7                 D7
                                          Gtr II
  
e|-------0-(0)-------|-------0-(0)-------|-5-5-5-5-5--5-5-|-5-5-5--5-5-5---||
B|-------1-(1)-------|-------3-(3)-------|-3-3-3-3-3--3-3-|-3-3-3--3-3-3---||
G|-----0-------0-----|-------------0-----|-5-5-5-5-5--5-5-|-5-5-5--5-5-5---||
D|---2-----------2---|-----2---------2---|-0-0-0-0-0--0-0-|-0-0-0--0-0-0---||
A|-3---------------3-|---2-------------2-|-0-5-5-0-5--0-5-|-5-0-5--0-5-5---||
E|-------------------|-0-----------------|----------------|----------------||
 |
 |
e|-------------------|-------------------|-5-5-5-5-5--5-5-|-5-5-5--5-5-5---||
B|-------------------|-------------------|-3-3-3-3-3--3-3-|-3-3-3--3-3-3---||
G|-------------------|-------------------|-5-5-5-5-5--5-5-|-5-5-5--5-5-5---||
D|-5-5-5-5--5--5-5-5-|-------------------|-0-0-0-0-0--0-0-|-0-0-0--0-0-0---||
A|-3-3-3-3--3--3-3-3-|-2-2-2-2--2--2-2-2-|-0-5-5-0-5--0-5-|-5-0-5--0-5-5---||
E|-------------------|-0-0-0-0--0--0-0-0-|----------------|----------------||


  2.
  D7
  Gtrs II, III
 
e|-5-5-5-5-5--5-5-|-5-5-5--5-5-5---|-5-5-5-5-5--5-5-|-5-5-5--5-5-5---||
B|-3-3-3-3-3--3-3-|-3-3-3--3-3-3---|-3-3-3-3-3--3-3-|-3-3-3--3-3-3---||
G|-5-5-5-5-5--5-5-|-5-5-5--5-5-5---|-5-5-5-5-5--5-5-|-5-5-5--5-5-5---||
D|-0-0-0-0-0--0-0-|-0-0-0--0-0-0---|-0-0-0-0-0--0-0-|-0-0-0--0-0-0---||
A|-0-5-5-0-5--0-5-|-5-0-5--0-5-5---|-0-5-5-0-5--0-5-|-5-0-5--0-5-5---||
E|----------------|----------------|----------------|----------------||


[Chorus]
   
   Gtr III
    C                   Em7                 Dadd4

 

    Gtr II
                                                                 3x
e||-------------------|-------------------|---------------------||
B||-------------------|-------------------|---------------------||
G||-0-----0-(0)---0---|-0-----0-(0)---0---|---0-----------------||
D||-2-----------------|-2-----------------|-4---4-------4-(4)---||
A||-3-----------------|-2-----------------|-5-----5-(5)---------||
E||-------------------|-0-----------------|---------------------||


                                 To Coda
  C                   Em7                  D7

                                           Gtrs II, III
 
e|-------------------|--------------------|-5-5-5-5-5--5-5-|
B|-------------------|--------------------|-3-3-3-3-3--3-3-|
G|-0-----0-(0)---0---|-0-----0-(0)---0----|-5-5-5-5-5--5-5-|
D|-2-----------------|-2------------------|-0-0-0-0-0--0-0-|
A|-3-----------------|-2------------------|-0-5-5-0-5--0-5-|
E|-------------------|-0------------------|----------------|


                                       D.S. al Coda
e|-5-5-5--5-5-5---|-5-5-5-5-5--5-5-|-5-5-5--5-5-5----||
B|-3-3-3--3-3-3---|-3-3-3-3-3--3-3-|-3-3-3--3-3-3----||
G|-5-5-5--5-5-5---|-5-5-5-5-5--5-5-|-5-5-5--5-5-5----||
D|-0-0-0--0-0-0---|-0-0-0-0-0--0-0-|-0-0-0--0-0-0----||
A|-5-0-5--0-5-5---|-0-5-5-0-5--0-5-|-5-0-5--0-5-5----||
E|----------------|----------------|-----------------||


[Interlude]
 
    D                                             D/C
                             3/4                 4/4
    Gtr II
 
e||-------------------------|-------------------|-------------------------|
B||-------------------------|-------------------|-------------------------|
G||-------------12-11-------|-------12-11-------|-------------12-11-------|
D||--0-12-10--0--------0-12-|-10--0-------------|--0-12-10--0--------0-12-|
A||-------------------------|-------------12-10-|-------------------------|
E||-------------------------|-------------------|-------------------------|
 |
 |   Gtr III
 |   
e||-------------------------|-------------------|-------------------------|
B||-------------------------|-------------------|-------------------------|
G||-------------------------|-------------------|-------------------------|
D||-12-12-12-12-12-12-12-12-|-12-12-12-12-12-12-|-10-10-10-10-10-10-10-10-|
A||--x--x--x--x--x--x--x--x-|--x--x--x--x--x--x-|--x--x--x--x--x--x--x--x-|
E||-10-10-10-10-10-10-10-10-|-10-10-10-10-10-10-|--8--8--8--8--8--8--8--8-|


                       Bm7
 3/4                  4/4
e|--------------------|----------------------|
B|--------------------|----------------------|
G|--------12-11-------|-----------12-11------|
D|-10---0-------------|-0-12-10-0-------0-12-|
A|--------------12-10-|----------------------|
E|--------------------|----------------------|
 |
 | 
e|--------------------|----------------------|
B|--------------------|----------------------|
G|--------------------|----------------------|
D|-10--10-10-10-10-10-|-9--9--9-9--9--9-9--9-|
A|--x---x--x--x--x--x-|-x--x--x-x--x--x-x--x-|
E|--8---8--8--8--8--8-|-7--7--7-7--7--7-7--7-|
 |
 | Gtr IV
 |  
e|--------------------|----------------------|
B|--------------------|----------------------|
G|--------------------|----------------------|
D|--------------------|----------------------|
A|--------------------|----------------------|
E|--------------------|----------------------|


  1.,2.,3.              4.
 3/4
 
e|-------------------||--------------------||
B|-------------------||--------------------||
G|-------12-11-------||------12-11---------||
D|-10--0-------------||-10-0---------------||
A|-------------12-10-||------------12-10---||
E|-------------------||--------------------||
 |
 | 
e|-------------------||--------------------||
B|-------------------||--------------------||
G|-------------------||--------------------||
D|--9--9--9--9--9--7-||--9-9--9--9--9--7---||
A|--x--x--x--x--x--x-||--x-x--x--x--x--x---||
E|--7--7--7--7--7--5-||--7-7--7--7--7--5---||
 |
 |  
e|--------------------||--------------------||
B|--------------------||--------------------||
G|--------------------||--------------------||
D|--------------------||--------------------||
A|--------------------||--------------------||
E|--------------------||-------------3s15\--||


    D7
   4/4
    Gtrs II, III
  
e||--5--5--5-5--5----5--5-|--5-5--5-----5--5--5----|
B||--3--3--3-3--3----3--3-|--3-3--3-----3--3--3----|
G||--5--5--5-5--5----5--5-|--5-5--5-----5--5--5----|
D||--0--0--0-0--0----0--0-|--0-0--0-----0--0--0----|
A||--0--5--5-0--5----0--5-|--5-0--5-----0--5--5----|
E||-----------------------|------------------------|
|
|   Gtr IV
|  
e||-----------------------|------------------------|
B||-----------------------|------------------------|
G||------------12-11------|------12-11-------------|
D||--0-12-10-0-------0-12-|-10-0-------------------|
A||-----------------------|------------12-10-12\---|
E||-----------------------|------------------------|


  
e|-5--5--5-5--5----5--5-|--5-5--5-----5--5--5------||
B|-3--3--3-3--3----3--3-|--3-3--3-----3--3--3------||
G|-5--5--5-5--5----5--5-|--5-5--5-----5--5--5------||
D|-0--0--0-0--0----0--0-|--0-0--0-----0--0--0------||
A|-0--5--5-0--5----0--5-|--5-0--5-----0--5--5------||
E|----------------------|--------------------------||
 |
 |
e|----------------------|--------------------------||
B|----------------------|--------------------------||
G|-----------12-11------|------12-11---------------||
D|-0-12-10-0-------0-12-|-10-0---------------------||
A|----------------------|------------12-10-12\-----||
E|----------------------|--------------------------||


[Chorus]
    
        Gtr II
        
    C                   Em7                 Dadd4

        
    Gtr III
   
e||--------------------|-------------------|----------------------||
B||--------------------|-------------------|----------------------||
G||--0-----0-(0)---0---|-0-----0-(0)---0---|---0------------------||
D||--2-----------------|-2-----------------|-4---4-------4-(4)----||
A||--3-----------------|-2-----------------|-5-----5-(5)----------||
E||--------------------|-0-----------------|----------------------||


[Outro]

  C                   Em7                      Dadd4
  
  Gtr I

e|-------3-(3)-------|---------0-(0)----------|-------5-(5)-------|
B|-----1-1-(1)-1-1---|-------3-3-(3)-3---3----|-----3-3-(3)-3-3---|
G|--0--0-0-(0)-0-0-0-|---0---0-0-(0)-0---0--0-|--0--0-0-(0)-0-0-0-|
D|--2--2-------2-2-2-|---2---2-------2---2--2-|--4--4-------4-4-4-|
A|--3--3-------3-3-3-|---2---2-------2---2--2-|--5--5-------5-5-5-|
E|-------------------|---0---0-------0---0--0-|-------------------|
|
| Gtrs II, III
|  
e|-------------------|------------------------|-------------------|
B|-------------------|------------------------|-------------------|
G|-12----------------|-(12)------------(12)s==|=11----------------|
D|--x----------------|--(x)-------------(x)---|--x----------------|
A|-10----------------|-(10)------------(10)s==|==9----------------|
E|-------------------|------------------------|-------------------|


    C                  Em7                Dadd4
e||-------3-(3)-------|------0-(0)-------|------5-(5)--------||
B||-----1-1-(1)-1-1---|----3-3-(3)-3-3---|----3-3-(3)-3-3----||
G||--0--0-0-(0)-0-0-0-|-0--0-0-(0)-0-0-0-|-0--0-0-(0)-0-0-0--||
D||--2--2-------2-2-2-|-2--2-------2-2-2-|-4--4-------4-4-4--||
A||--3--3-------3-3-3-|-2--2-------2-2-2-|-5--5-------5-5-5--||
E||-------------------|-0--0-------0-0-0-|-------------------||


  C
e|----------|--------|
B|----------|--------|
G|-0--------|-(0)----|
D|-2--------|-(2)----|
A|-3--------|-(3)----|
E|----------|--------|



************************************

| x    Dead note
| (n)  Ghost note
| \    Slide down
| s    Slide
| =    Hold

************************************

Nice tab. Long but good.
The intro chord is this though for shure
5
0
5
0
5
And then before the verse he strums this
0
0
5
0
5
The rest is good.

https://tabs.ultimate-guitar.com/f/foo_fighters/times_like_these_tab.htm