Tablature guitare : Foo Fighters – Something From Nothing

-------------------------------------------------------------------------------
                             Something From Nothing - Foo Fighters
-------------------------------------------------------------------------------
Tabbed by: GrohlDFW.com
E-mail: generatorlive@gmail.com

*Any edits or suggestions are welcome*

Guitar 1 (Dave):  E A D G B E
Guitar 2 (Chris): E A D G B E
Guitar 3 (Pat):   E A D G B E


[Intro] (Finger style)
(Guitar 1)
    Em
e|---------------------------------------|
B|----0---0---0---0---0---0---0----------|
G|----0---0---0---0---0---0---0----------|
D|---------------------------------------| x2
A|--7---7---7---7------------------------|
E|------------------0---0---0---0--------|


[Verse]
(Guitar 1)
    Em              Em/Eb           Em/D            Em/Db
e|-------------------------------------------------------------------|
B|----0---0---0---0---0---0---0---0---0---0---0---0---0---0---0---0--|
G|----0---0---0---0---0---0---0---0---0---0---0---0---0---0---0---0--|
D|-------------------------------------------------------------------|
A|--7---7---7---7---6---6---6---6---5---5---5---5---4---4---4---4----|
E|-------------------------------------------------------------------|
"Give me the flammable..."

    Em/C    Em      Em/A
e|-----------------------------------|
B|----0---0---0---0---0---0---0---0--|
G|----0---0---0---0---0---0---0---0--|
D|-----------------------------------| (x2 first time only)
A|--3---3---7---7---0---0---0---0----|
E|-----------------------------------|

(0:26)
(Guitar 2) Slide
e|---------------------------------------------------------------------------|
B|---------------------------------------------------------------------------|
G|--9~---/12\--8~---/12\--7~---/12\--6~----5----/9--/12~---------------------|
D|---------------------------------------------------------------------------|
A|---------------------------------------------------------------------------|
E|---------------------------------------------------------------------------|
"Here lies a city on fire..."

(Guitar 3) (0:26)
e|----------------------------------|
B|------8-------8-------8-------8---|
G|----9---9---9---9---9---9---9---9-|
D|--9-------9-------9-------9-------| x4 first time through verse
A|----------------------------------| x2 second time through verse
E|----------------------------------|

(Guitar 1 & 3)                                      C   Em  A
e|---------------------------------------------------------------------------|
B|--------------------------------------------------5---8--------------------|
G|--------------------------------------------------5---9---6----------------|
D|--------------------------------------------------5---9---7~---------------|
A|-----------5--4~--0~--------------5--4~--0~-------3---7---7~---------------|
E|--0--2--3----------------0--2--3--------------------------5~---------------|

(Guitar 2)
e|---------------------------------------------------------------------------|
B|---------------------------------------------------------------------------|
G|--4-/6-/7-/12\9~---------4-/6-/7-/12\9~--------------/12\-6~----(/9)-------|
D|---------------------------------------------------------------------------|
A|---------------------------------------------------------------------------|
E|---------------------------------------------------------------------------|

Repeat Verse


[Pre-Chorus]
(Guitar 1 & 3)
                    Em F# G        
e|------------------------------------|
B|------------------------------------|
G|------------------------------------| 
D|-0h2-X-X-0h2-X-X--2--4--5-----------|  x8
A|-0h2-X-X-0h2-X-X--2--4--5-----------|
E|-0---X-X-0---X-X--0--2--3-----------|

(Guitar 2)
                    Em F# G        
e|------------------------------------|
B|------------------------------------|
G|------------------------------------| 
D|--7h9-X-X-7h9-X-X-9--11-12--X-X-----|  x16
A|--7---X-X-7---X-X-7--9--10--X-X-----|
E|------------------------------------|


[Bridge]
(Guitar 1 & 3)
    C   Em  A      C   Em  A      C   Em  A
e|---------------------------------------------------------------|
B|--5---8----------5---8----------5---8--------------------------|
G|--5---9---6------5---9---6------5---9---6-6-6-6-6-6-6-6--------|
D|--5---9---7------5---9---7------5---9---7-7-7-7-7-7-7-7--------|
A|--3---7---7------3---7---7------3---7---7-7-7-7-7-7-7-7--------|
E|----------5--------------5--------------5-5-5-5-5-5-5-5--------|
                                          "Here I go..."
(Guitar 2)
e|---------------------------------|    |--------------|
B|---------------------------------|    |--------------|
G|---------------------------------|    |--------------|
D|------------5~--7b-7-5-----7~----| x2 |--2~--5~-7~---|
A|--\3~-3-5/7------------7-5-------|    |--------------|
E|---------------------------------|    |--------------|


[Pre-Chorus] (starring Stevie Wonder on keyboard??)
(Guitar 1 & 3)
                    Em F# G        
e|------------------------------------|
B|------------------------------------|
G|------------------------------------| 
D|-0h2-X-X-0h2-X-X--2--4--5-----------|  x8
A|-0h2-X-X-0h2-X-X--2--4--5-----------|
E|-0---X-X-0---X-X--0--2--3-----------|

(Guitar 2)
e|-----|            e|------0--0--0--0-------------------0--0--0--0----9--9--9--9-------------------|
B|-----|            B|------11-11-11-11----8--8--8--8----11-11-11-11---8--8--8--8-------------------|
G|-----|            G|------9--9--9--9-----6--6--6--6----9--9--9--9----9--9--9--9-------------------|
D|-----| x2 then:   D|--0/--11-11-11-11----8--8--8--8----11-11-11-11----------------------------11~-|
A|-----|            A|-------------------------------------------------------------7-7-9-7-9/10-----|
E|-----|            E|------------------------------------------------------------------------------|

(Guitar 1)
                    Em F# G        
e|------------------------------------|
B|------------------------------------|
G|------------------------------------| 
D|-0h2-X-X-0h2-X-X--2--4--5-----------|  x16
A|-0h2-X-X-0h2-X-X--2--4--5-----------|
E|-0---X-X-0---X-X--0--2--3-----------|
"Oh sweet ignition be my fuse..."

(Guitar 2)
                    Em F# G        
e|------------------------------------|
B|------------------------------------|
G|------------------------------------| 
D|--7h9-X-X-7h9-X-X-9--11-12--X-X-----|  x16
A|--7---X-X-7---X-X-7--9--10--X-X-----|
E|------------------------------------|

(Guitar 3) with phaser & wah
e|-----|            e|------|
B|-----|            B|------|
G|-----|            G|--9~--|
D|-----| x8 then:   D|------| x8
A|-----|            A|--7~--|
E|-----|            E|--0~--|


[Chorus]
(Guitar 1)
    Em   D# D    C# C    Bb A    F
e|----------------------------------|
B|----------------------------------|
G|--9~---8--7~---6--5~---3--2~------|
D|--9~---8--7~---6--5~---3--2~---3--| x4
A|--7~---6--5~---4--3~---1--0~---3--|
E|-------------------------------1--|

(Guitar 2)
           e||------------------------------------------------------------|
           B||------------------------------------------------------------|
Same as    G||o-----------------------------------------------------------|
Gtr 1 x1   D||o-----------------5~--5-5-7p5---------------7~--7-7-9p7-----| 
then:      A||--12\-----7~--5/7-------------7~----5~--7/9-------------9~--|
           E||------------------------------------------------------------|

e|-------------------------------------------||
B|-------------------------------------------||
G|------------------------------------------o||
D|-----------5~--5-5-7p5---------------2~---o|| x3
A|---3~--5/7-------------7~----0~--3h4-------||
E|-------------------------------------------||

(Guitar 3)
    Em   D# D    C# C    Bb A    F
e|----------------------------------|                  e|----------------------------------|
B|----------------------------------|                  B|----------------------------------|
G|-------8--7~---6--5~---3--2~------|                  G|----------------------------------|
D|--2~---8--7~---6--5~---3--2~---3--|  first time      D|----------------------------------| x3
A|--2~---6--5~---4--3~---1--0~---3--|  only, then:     A|--7~---6--5~---4--3~---1--0~------| 
E|--0~---------------------------1--|                  E|-------------------------------1--|

The OH Section
(Guitar 1 & 3)                                            1. (first time)          2. (second time)
                                       
    Em                D                 C              Bb    A            F  F     A
e|-------------------------------------------------------|----------------------||-------------------||
B|-------------------------------------------------------|----------------------||-------------------||
G|--9----9----9----9\-7----7----7----7\-5----5----5----3-|---2----2----2-------o||o-2-2-2-2-2-2-2-2-o||
D|--9----9----9----9\-7----7----7----7\-5----5----5----3-|---2----2----2--3--3-o||o-2-2-2-2-2-2-2-2-o||
A|--7--777--777--777\-5--555--555--555\-3--333--333--331-|-000--000--000--3--3--||--0-0-0-0-0-0-0-0--||
E|-------------------------------------------------------|----------------1--1--||-------------------||
"It goes OH! OH! OH!..."

(Guitar 2)                                           1. (first time)      2. (second time)
e|------------------------------------------------------|-------------------||-------------------||
B|------------------------------------------------------|-------------------||-------------------||
G|-12--12--12--12--14--14--14--14/16\14--12--12--12--10-|-9---9---9---1010-o||o-9-9-9-9-9-9-9-9-o||
D|------------------------------------------------------|------------------o||o-----------------o||
A|-10--10--10--10--12--12--12--12/14\12--10--10--10--8--|-7---7---7---8-8---||--7-7-7-7-7-7-7-7--||
E|------------------------------------------------------|-------------------||-------------------||


[Guitar Solo]
(Guitar 1)
    D E     D E      E  F# G
e|-----------------------------|
B|-----------------------------|
G|-----------------------------|
D|--7/9-9-9-7/9-9-9--9--11-12--| x8
A|--5/7-7-7-5/7-7-7--7--9--10--|
E|-----------------------------|

(Guitar 2) Solo (This definitely isn't it, but sounds ok and is in the same style)
e|---------------------------------------------------------------------------|
B|---------------------------------------------------------------------------|
G|-----------------9-11-12-12-11-9---------12-11-9---------12-11-9-----------|
D|--X\/X---9-11-12-----------------12-11-9---------12-11-9---------12-11-9---|
A|--X\/X---------------------------------------------------------------------|
E|---------------------------------------------------------------------------|

e|---------------------------------------------------------------------------|
B|---------------------------------------------------------------------------|
G|---------12-11-9-----------------------------------------------------------|
D|-12-11-9---------12-11-9---------12-11-9-----------------------------------|
A|-------------------------12-10-9---------12-10-9---------------------------|
E|-------------------------------------------------12~-----------------------|

e|----------------------------------------|
B|------8---8---8---8---8---8---8---8-----|
G|------10b-10b-10b-10b-10b-10b-10b-12----|
D|----------------------------------------| x4
A|----------------------------------------|
E|----------------------------------------|
          (gradual bend up to 12)


(Guitar 3)
          e|----------------------------|    
          B|----------------------------|    
Same as   G|--9-9-9-9-9-9-9-9--9--11-12-|    
Gtr 1 x4  D|----------------------------| x4 
then:     A|--7-7-7-7-7-7-7-7--7--9--10-|  
          E|----------------------------|  


[Last Chorus]
(Guitar 1)
    D E     D E      E  F# G
e|-----------------------------|
B|-----------------------------|
G|-----------------------------|
D|--7/9-9-9-7/9-9-9--9--11-12--| x8
A|--5/7-7-7-5/7-7-7--7--9--10--|
E|-----------------------------|
"No you can't make me change my name..."

(Guitar 2)
e|-------------------------------------------------|     |-----------------------------|
B|-------------------------------------------------|     |-----------------------------|
G|-12-12-12-12-12-12-12-12-12-12-12-12-12-12-12-12-|     |-----------------------------|
D|-------------------------------------------------| x4  |-7h9-9-9-7h9-9-9--9--11--12--| x4
A|-10-10-10-10-10-10-10-10-10-10-10-10-10-10-10-10-|     |-----------------------------|
E|-------------------------------------------------|     |-----------------------------|

(Guitar 3)
          e|----------------------------|    
          B|----------------------------|    
Same as   G|--9-9-9-9-9-9-9-9--9--11-12-|    
Gtr 1 x4  D|----------------------------| x4 
then:     A|--7-7-7-7-7-7-7-7--7--9--10-|  
          E|----------------------------|  


[Ending]
(Guitar 1)
   Em D/F# G   D   A
e|--------------------------|
B|--------------------------|
G|-------------7---2~-------|
D|-2---4---5---7---2~-------|
A|-2---5---5---5---0~---0/\-|
E|-0---2---3----------------|

(Guitar 2)
  Em  D/F# G   D  A/C#
e|--------------------------|
B|--------------------------|
G|-------------7---2~-------|
D|-2---4---5---7---2~-------|
A|-2---5---5---5---4~---0/\-|
E|-0---2---3----------------|

(Guitar 3)
e|------------------------|
B|------------------------|
G|-9--11-12--11--14~------|
D|-9--11-12---------------|
A|-7--9--10--9---12~------|
E|------------------------|


************************************

| /   slide up
| \   slide down
| h   hammer-on
| p   pull-off
| ~   vibrato
| +   harmonic
| x   Mute note
| b   Bend
| pb  Pre-bend
| br  Bend release
| pbr Pre-bend release
| brb Bend release bend

************************************

https://tabs.ultimate-guitar.com/f/foo_fighters/something_from_nothing_ver4_tab.htm