Tablature guitare : Ed Sheeran – Thinking Out Loud

E A D G B E
[Verse]  

    D       D/F#         G6    A        D       D/F#         G6    A
e|--2----x-----2--x--------x-----------2----x-----2--x--------x--------------|
B|--3----x--3--3--x-----0--x--2--------3----x--2--3--x-----0--x--2-----------|
G|--0h2--x--2--2--x-----0--x--2---2h4--0h2--x--3--2--x-----0--x--2---2h4-----|
D|-------x--0--0--x-----0--x--2--2----------x--0--0--x-----0--x--2--2--------|
A|-------x-----0--x--------x--0-------------x-----0--x--------x--0-----------|
E|-------x--2--2--x--0--3--x----------------x--2--2--x--0--3--x--------------|

    D       D/F#         G6    A        D       D/F#         G6    A  
e|--2----x-----2--x--------x-----------2----x-----2--x--------x-----0--x-----|
B|--3----x--3--3--x-----0--x--2--------3----x--2--3--x-----0--x--2--2--x-----|
G|--0h2--x--2--2--x-----0--x--2---2h4--0h2--x--3--2--x-----0--x--2--2--x-----|
D|-------x--0--0--x-----0--x--2--2----------x--0--0--x-----0--x--2--2--x-----|
A|-------x-----0--x--------x--0-------------x-----0--x--------x--0--0--x-----|
E|-------x--2--2--x--0--3--x----------------x--2--2--x--0--3--x--------x-----|

D     D/F#                                 G6           A              
      When your legs don't work like they used to before
D     D/F#                          G6          A  
      And I can't sweep you off of your feet
D     D/F#                                G6              A   
      Will your mouth still remember the taste of my love
D     D/F#                      G6                  A
      Will your eyes still smile from your cheeks

    D       D/F#         G6    A        D       D/F#         G6    A
e|--2----x-----2--x--------x-----0--x--2----x-----2--x--------x-----0--x-----|
B|--3----x--3--3--x-----0--x--2--2--x--3----x--2--3--x-----0--x--2--2--x-----|
G|--0h2--x--2--2--x-----0--x--2--2--x--0h2--x--3--2--x-----0--x--2--2--x-----|
D|-------x--0--0--x-----0--x--2--2--x-------x--0--0--x-----0--x--2--2--x-----|
A|-------x-----0--x--------x--0--0--x-------x-----0--x--------x--0--0--x-----|
E|-------x--2--2--x--0--3--x--------x-------x--2--2--x--0--3--x--------x-----|

    D       D/F#         G6    A        D       D/F#         G6    A
e|--2----x-----2--x--------x-----0--x--2----x-----2--x--------x-----0--x-----|
B|--3----x--3--3--x-----0--x--2--2--x--3----x--2--3--x-----0--x--2--2--x-----|
G|--0h2--x--2--2--x-----0--x--2--2--x--0h2--x--3--2--x-----0--x--2--2--x-----|
D|-------x--0--0--x-----0--x--2--2--x-------x--0--0--x-----0--x--2--2--x-----|
A|-------x-----0--x--------x--0--0--x-------x-----0--x--------x--0--0--x-----|
E|-------x--2--2--x--0--3--x--------x-------x--2--2--x--0--3--x--------x-----|

             D D/F#              G6 A            D     D/F#     G6     A
 And darling I will be loving you 'til we're 70
          D  D/F#                    G6 A           D    D/F# 
 And baby my heart could still fall as hard at 23
     G6            A  
 And I'm thinking 'bout how

       Em                A     D           Em                A 
e|--------x-----0--x--------x--2--2--x--------x-----0--x--------x-----0--x---|
B|-----0--x--0--0--x-----2--x--3--3--x-----0--x--0--0--x-----2--x--2--2--x---|
G|-----0--x--0--0--x-----2--x--2--2--x-----0--x--0--0--x-----2--x--2--2--x---|
D|-----2--x--2--2--x-----2--x--0--0--x-----2--x--2--2--x-----2--x--2--2--x---|
A|--0--2--x--2--2--x--0--0--x--------x--0--2--x--2--2--x--0--0--x--0--0--x---|
E|--------x-----0--x--------x--------x--------x-----0--x--------x--------x---|
 
       Em       A              Bm          Em                A 
e|--------x-----0--x--------x-----2--x--------x-----0--x-----0-0-0-0-0-------|
B|-----0--x--0--0--x-----2--x--3--3--x-----0--x--0--0--x-----2-2-2-2-2-------|
G|-----0--x--0--0--x-----2--x--4--4--x-----0--x--0--0--x-----2-2-2-2-2-------|
D|-----2--x--2--2--x-----2--x--4--4--x-----2--x--2--2--x-----2-2-2-2-2-------|
A|--0--2--x--2--2--x--0--0--x--2--2--x--0--2--x--2--2--x--0--0-0-0-0-0-------|
E|--------x-----0--x--------x--------x--------x-----0--x---------------------|
 
Em                     A          D
people fall in love in mysterious ways
Em                        A
Maybe just the touch of a hand
   Em                         A            Bm
Oh me I fall in love with you every single day
    Em                      A 
And I just wanna tell you I am


[Chorus]

    D       D/F#         G6    A        D       D/F#         G6    A
e|--2----x-----2--x--------x-----0--x--2----x-----2--x--------x-----0--x-----|
B|--3----x--3--3--x-----0--x--2--2--x--3----x--2--3--x-----0--x--2--2--x-----|
G|--0h2--x--2--2--x-----0--x--2--2--x--0h2--x--3--2--x-----0--x--2--2--x-----|
D|-------x--0--0--x-----0--x--2--2--x-------x--0--0--x-----0--x--2--2--x-----|
A|-------x-----0--x--------x--0--0--x-------x-----0--x--------x--0--0--x-----|
E|-------x--2--2--x--0--3--x--------x-------x--2--2--x--0--3--x--------x-----|

    D       D/F#         G6    A        D       D/F#         G6    A
e|--2----x-----2--x--------x-----0--x--2----x-----2--x--------x-----0--x-----|
B|--3----x--3--3--x-----0--x--2--2--x--3----x--2--3--x-----0--x--2--2--x-----|
G|--0h2--x--2--2--x-----0--x--2--2--x--0h2--x--3--2--x-----0--x--2--2--x-----|
D|-------x--0--0--x-----0--x--2--2--x-------x--0--0--x-----0--x--2--2--x-----|
A|-------x-----0--x--------x--0--0--x-------x-----0--x--------x--0--0--x-----|
E|-------x--2--2--x--0--3--x--------x-------x--2--2--x--0--3--x--------x-----|

    Bm     A      G      D/F#    Em     A      D
e|--------------------------------------------2------------------------------|
B|--3------2------3------3------0------2------3------------------------------|
G|--4------2------0------2------0------2------2------------------------------|
D|--4------2------0------0------2------2------0------------------------------|
A|--2------0--------------------2------0-------------------------------------|
E|----------------3------2---------------------------------------------------|

           D   D/F#  G6          A                      D   D/F#    G6   
So honey now            take me into your loving arms
        A                    D        D/F#                    G6        
Kiss me under the light of a thousand stars
A                             D       D/F#
Place your head on my beating heart
             G6   A
I'm thinking out loud
     Bm A     G    D/F#   Em    A  D 
Maybe we found love right where we are


[Verse]

    D       D/F#         G6    A           D       D/F#         G6    A
e|--2----x-----2--x--------x--------------2----x-----2--x--------x-----------|
B|--3----x--3--3--x-----0--x--2-----------3----x--2--3--x-----0--x--2--------|
G|--0h2--x--2--2--x-----0--x--2---2h4--0--0h2--x--3--2--x-----0--x--2---2h4--|
D|-------x--0--0--x-----0--x--2--2-------------x--0--0--x-----0--x--2--2-----|
A|-------x-----0--x--------x--0----------------x-----0--x--------x--0--------|
E|-------x--2--2--x--0--3--x-------------------x--2--2--x--0--3--x-----------|
   
     D       D/F#         G6    A            D       D/F#         G6    A  
e|---2----x-----2--x--------x--------------2----x-----2--x--------x-----0--x-|
B|---3----x--3--3--x-----0--x--2-----------3----x--2--3--x-----0--x--2--2--x-|
G|0--0h2--x--2--2--x-----0--x--2---2h4--0--0h2--x--3--2--x-----0--x--2--2--x-|
D|--------x--0--0--x-----0--x--2--2-------------x--0--0--x-----0--x--2--2--x-|
A|--------x-----0--x--------x--0----------------x-----0--x--------x--0--0--x-|
E|--------x--2--2--x--0--3--x-------------------x--2--2--x--0--3--x--------x-|

D    D/F#                                G6          A
     When my hair's all but gone and my memory fades
D    D/F#                              G6          A
     And the crowds don't remember my name
D    D/F#                 G6                       A  
     When my hands don't play the strings the same way
D    D/F#                               G6         A
     I know you will still love me the same

    D       D/F#         G6    A        D       D/F#         G6    A
e|--2----x-----2--x--------x-----0--x--2----x-----2--x--------x-----0--x-----|
B|--3----x--3--3--x-----0--x--2--2--x--3----x--2--3--x-----0--x--2--2--x-----|
G|--0h2--x--2--2--x-----0--x--2--2--x--0h2--x--3--2--x-----0--x--2--2--x-----|
D|-------x--0--0--x-----0--x--2--2--x-------x--0--0--x-----0--x--2--2--x-----|
A|-------x-----0--x--------x--0--0--x-------x-----0--x--------x--0--0--x-----|
E|-------x--2--2--x--0--3--x--------x-------x--2--2--x--0--3--x--------x-----|

    D       D/F#         G6    A        D       D/F#         G6    A
e|--2----x-----2--x--------x-----0--x--2----x-----2--x--------x-----0--x-----|
B|--3----x--3--3--x-----0--x--2--2--x--3----x--2--3--x-----0--x--2--2--x-----|
G|--0h2--x--2--2--x-----0--x--2--2--x--0h2--x--3--2--x-----0--x--2--2--x-----|
D|-------x--0--0--x-----0--x--2--2--x-------x--0--0--x-----0--x--2--2--x-----|
A|-------x-----0--x--------x--0--0--x-------x-----0--x--------x--0--0--x-----|
E|-------x--2--2--x--0--3--x--------x-------x--2--2--x--0--3--x--------x-----|

              D  D/F#                G6 A               D    D/F#   G6   A 
Cause honey your soul could never grow old, it's evergreen
            D  D/F#              G6   A            D    D/F#   
And, baby, your smile's forever in my mind and memory
G6                  A
I'm thinking 'bout how 

       Em                A     D           Em                A
e|--------x-----0--x--------x--2--2--x--------x-----0--x--------x-----0--x---|
B|-----0--x--0--0--x-----2--x--3--3--x-----0--x--0--0--x-----2--x--2--2--x---|
G|-----0--x--0--0--x-----2--x--2--2--x-----0--x--0--0--x-----2--x--2--2--x---|
D|-----2--x--2--2--x-----2--x--0--0--x-----2--x--2--2--x-----2--x--2--2--x---|
A|--0--2--x--2--2--x--0--0--x--------x--0--2--x--2--2--x--0--0--x--0--0--x---|
E|--------x-----0--x--------x--------x--------x-----0--x--------x--------x---|
 
                                                            
       Em       A              Bm          Em                A 
e|--------x-----0--x--------x-----2--x--------x-----0--x-----0-0-0-0-0-------|
B|-----0--x--0--0--x-----2--x--3--3--x-----0--x--0--0--x-----2-2-2-2-2-------|
G|-----0--x--0--0--x-----2--x--4--4--x-----0--x--0--0--x-----2-2-2-2-2-------|
D|-----2--x--2--2--x-----2--x--4--4--x-----2--x--2--2--x-----2-2-2-2-2-------|
A|--0--2--x--2--2--x--0--0--x--2--2--x--0--2--x--2--2--x--0--0-0-0-0-0-------|
E|--------x-----0--x--------x--------x--------x-----0--x---------------------|

Em                        A       D
people fall in love in mysterious ways
Em                       A
Maybe it's all part of a plan
    Em                           A    Bm
Well, I'll just keep on making the same mistakes
  Em                       A
Hoping that you'll understand


[Chorus]

    D       D/F#         G6    A        D       D/F#         G6    A
e|--2----x-----2--x--------x-----0--x--2----x-----2--x--------x-----0--x-----|
B|--3----x--3--3--x-----0--x--2--2--x--3----x--2--3--x-----0--x--2--2--x-----|
G|--0h2--x--2--2--x-----0--x--2--2--x--0h2--x--3--2--x-----0--x--2--2--x-----|
D|-------x--0--0--x-----0--x--2--2--x-------x--0--0--x-----0--x--2--2--x-----|
A|-------x-----0--x--------x--0--0--x-------x-----0--x--------x--0--0--x-----|
E|-------x--2--2--x--0--3--x--------x-------x--2--2--x--0--3--x--------x-----|

    D       D/F#         G6    A        D       D/F#         G6    A
e|--2----x-----2--x--------x-----0--x--2----x-----2--x--------x-----0--x-----|
B|--3----x--3--3--x-----0--x--2--2--x--3----x--2--3--x-----0--x--2--2--x-----|
G|--0h2--x--2--2--x-----0--x--2--2--x--0h2--x--3--2--x-----0--x--2--2--x-----|
D|-------x--0--0--x-----0--x--2--2--x-------x--0--0--x-----0--x--2--2--x-----|
A|-------x-----0--x--------x--0--0--x-------x-----0--x--------x--0--0--x-----|
E|-------x--2--2--x--0--3--x--------x-------x--2--2--x--0--3--x--------x-----|

    Bm     A      G      D/F#    Em     A      D
e|--------------------------------------------2------------------------------|
B|--3------2------3------3------0------2------3------------------------------|
G|--4------2------0------2------0------2------2------------------------------|
D|--4------2------0------0------2------2------0------------------------------|
A|--2------0--------------------2------0-------------------------------------|
E|----------------3------2---------------------------------------------------|

     D     D/F#   G6   A                          D    D/F#    G6      
baby, now              take me into your loving arms
 A                            D        D/F#      G6
Kiss me under the light of a thousand stars
 A                                D     D/F#      
Place your head on my beating heart
         G6  A
Thinking out loud
          Bm A     G    D/F#   Em    A  D
That maybe we found love right where we are


[Solo]

    D       D/F#         G6    A           D       D/F#         G6    A
e|--2----x-----2--x--------x--------------2----x-----2--x--------x-----------|
B|--3----x--3--3--x-----0--x--2-----------3----x--2--3--x-----0--x--2--------|
G|--0h2--x--2--2--x-----0--x--2---2h4--0--0h2--x--3--2--x-----0--x--2---2h4--|
D|-------x--0--0--x-----0--x--2--2-------------x--0--0--x-----0--x--2--2-----|
A|-------x-----0--x--------x--0----------------x-----0--x--------x--0--------|
E|-------x--2--2--x--0--3--x-------------------x--2--2--x--0--3--x-----------|
                                                           
     D       D/F#         G6    A           D       D/F#       G6      A  
e|---2----x-----2--x--------x--------------2----x-----2--x-------------------|
B|---3----x--3--3--x-----0--x--2-----------3----x--2--3--x---0-0-0-0-2-2-2-2-|
G|0--0h2--x--2--2--x-----0--x--2---2h4--0--0h2--x--3--2--x---0-0-0-0-2-2-2-2-|
D|--------x--0--0--x-----0--x--2--2-------------x--0--0--x---0-0-0-0-2-2-2-2-|
A|--------x-----0--x--------x--0----------------x-----0--x---x-x-x-x-0-0-0-0-|
E|--------x--2--2--x--0--3--x-------------------x--2--2--x-0-3-3-3-3---------|


[Chorus]

    D      D/F#      G6       Asus     D      D/F#      G6       Asus
e|--2---2--2-2-2-2--3-3-3-3-----------2---2--2-2-2-2--3-3-3-3----------------|
B|--3---3--3-3-3-3--3-3-3-3--3-3-3-3--3---3--3-3-3-3--3-3-3-3--3-3-3-3-------|
G|--0h2-2--2-2-2-2--0-0-0-0--2-2-2-2--0h2-2--2-2-2-2--0-0-0-0--2-2-2-2-------| 
D|---------0-0-0-0--0-0-0-0--2-2-2-2---------0-0-0-0--0-0-0-0--2-2-2-2-------|
A|---------0-0-0-0--x-x-x-x--0-0-0-0---------0-0-0-0--x-x-x-x--0-0-0-0-------|
E|---------2-2-2-2--3-3-3-3------------------2-2-2-2--3-3-3-3----------------|

    D      D/F#      G6       Asus     D      D/F#      G6       Asus
e|--2---2--2-2-2-2--3-3-3-3-----------2---2--2-2-2-2--3-3-3-3----------------|
B|--3---3--3-3-3-3--3-3-3-3--3-3-3-3--3---3--3-3-3-3--3-3-3-3--3-3-3-3-------|
G|--0h2-2--2-2-2-2--0-0-0-0--2-2-2-2--0h2-2--2-2-2-2--0-0-0-0--2-2-2-2-------| X 2
D|---------0-0-0-0--0-0-0-0--2-2-2-2---------0-0-0-0--0-0-0-0--2-2-2-2-------|
A|---------0-0-0-0--x-x-x-x--0-0-0-0---------0-0-0-0--x-x-x-x--0-0-0-0-------|
E|---------2-2-2-2--3-3-3-3------------------2-2-2-2--3-3-3-3----------------|


    Bm     A      G      D/F#    Em     A      D 
e|--------------------------------------------2------------------------------|
B|--3------2------3------3------0------2------3------------------------------|
G|--4------2------0------2------0------2------2------------------------------|x3
D|--4------2------0------0------2------2------0------------------------------|
A|--2------0--------------------2------0-------------------------------------|
E|----------------3------2---------------------------------------------------|

        D     D/F#   G6   A                          D    D/F#    G6      
So baby, now              take me into your loving arms
 A                            D        D/F#      G6
Kiss me under the light of a thousand stars
 A                           D     D/F#      
Place your head on my beating heart
   G6  A
Thinking out loud
           Bm A     G    D/F#   Em    A  D
That maybe we found love right where we are
        Bm A     G    D/F#   Em    A  D
Oh baby, we found love right where we are
   Bm A     G    D/F#   Em    A  D
And we found love right where we are


***********************************
| h   Hummer-on
| x   Dead note
***********************************

Commentaires :

Thanks but should be D/F#

I think i says 23 in the second vers and not 20 ^^

D D/F G6 A D D/F
And baby my heart could still fall as hard at 20

Source : https://tabs.ultimate-guitar.com/e/ed_sheeran/thinking_out_loud_ver2_tab.htm