Tablature guitare : Ed Sheeran – I See Fire

[Intro]
N.C.
Oh, misty eye of the mountain below
Keep careful watch of my brothers' souls
And should the sky be filled with fire and smoke
                           Em
Keep watching over Durin's son


[Intro Tab]

e|-------------------------x----------------x---------------x--|
B|-----------0h1-----------x------3---3-----x---0-----------x--|
G|2h4p20-0---0-------------x------0h2-2-----x---0-----------x--|
D|------2----2-------------x------0---------x---2-----------x--|  
A|-----------3-------------x----------------x---------------x--|
E|0-----------------------------------------x---0-----------x--|(x2)


[Verse 1]

              Em     G
If this is to end in fire
              D        C
Then we shall all burn together
          Em           G    D        Am7
Watch the flames climb high into the night
        Em    G     D            C
Calling out father, stand by and we will
          Am7         Bm            C
Watch the flames burn auburn on the mountain side


[Intro Tab]

                 Em    G
And if we should die tonight
               D       C
Then we should all die together
        Em       G   D        Am7
Raise a glass of wine for the last time
        Em    G     D          C
Calling out father, prepare as we will
          Am7         Bm            C
Watch the flames burn auburn on the mountain side
    Am7    Bm             C
Desolation comes upon the sky


[Chorus]

          Em  C  D          Em          
Now I see fire,  inside the mountain
      Em  C  D           Em
I see fire,  burning the trees 
          Em  C  D         Em
And I see fire,  hollowing souls
      Em  C  D            Am7
I see fire,  blood in the breeze

And I hope that you'll remember me


[Intro Tab] (x2)


[Verse 2]

              Em     G
Oh, should my people fall
            D           C
Then surely I'll do the same
            Em       G
Confined in mountain halls
           D            Am7
We got too close to the flame
        Em     G   D             C     
Calling out father hold fast and we will
          Am7         Bm            C
Watch the flames burn auburn on the mountain side
    Am7    Bm             C
Desolation comes upon the sky


[Chorus]

          Em  C  D          Em          
Now I see fire,  inside the mountain
      Em  C  D           Em
I see fire,  burning the trees 
          Em  C  D         Em
And I see fire,  hollowing souls
      Em  C  D            Am7
I see fire,  blood in the breeze
                                Am7
And I hope that you'll remember me


[Bridge]

           Em       G
And if the night is burning
       D        C
I will cover my eyes
           Em     G
For if the dark returns then
   D             Am7
My brothers will die
           Em            G
And as the sky's falling down
           D                C
It crashed into this lonely town
              Am7                   
And with that shadow upon the ground
  Bm      C                D
I hear my people screaming out


[Chorus]

          Em  C  D          Em          
Now I see fire,  inside the mountain
      Em  C  D           Em
I see fire,  burning the trees 
          Em  C  D         Em
And I see fire,  hollowing souls
      Em  C  D            Em
I see fire,  blood in the breeze

      Em           C                 D        Em 
I see fire, oh you know I saw a city burning (fire)
      Em         C                D     Em
I see fire, feel the heat upon my skin (fire)
          Em   C       D  Em 
And I see fire, oooooo (fire)
          Em        C             D        Em
And I see fire burn auburn on the mountain side



************************************

| x  Dead note
| h  Hammer-on
| p  Pull-off

************************************

Commentaire :

e|-------------------------x
B|-----------0h1-----------x
G|2h4p20---0-0-------------x
D|------0h2--2-------------x
A|-----------3-------------x
E|0------------------------x
 what do you think?

Source : https://tabs.ultimate-guitar.com/e/ed_sheeran/i_see_fire_ver4_crd.htm

-------------------------------------------------------------------------------
                             I See Fire   -   Ed Sheeran
-------------------------------------------------------------------------------


Just a little tab for the solo part in the middle (at 1:50 in the music video)

Standard Tuning
Capo on 6


x = palm muted strum


e|----------------------------x---------x---------x----------------------------|
B|---5------------------------x---3-----x---------x----------------------------|
G|---2h4p2p0--------0---0-----x---0h2---x-----0---x----------------------------|
D|-------------0h2------0h2---x---0-----x-----2---x----------------------------|
A|----------------------3---------------------2--------------------------------|
E|---0-------------------------------------------------------------------------|

************************************

| x  Dead note
| h  Hammer-on
| p  Pull-off

************************************

It’s almost right but the beginning is a bit different, if you look closely in the video you can see. It’s actually:

e|----------------------------x---------x---------x----------------------------|
B|---5------------------------x---3-----x---------x----------------------------|
G|---2h4p2--0-------0---0-----x---0h2---x-----0---x----------------------------|
D|-------------0h2------0h2---x---0-----x-----2---x----------------------------|
A|---0------------------3---------------------2--------------------------------|
E|-----------------------------------------------------------------------------|

Source 2 : https://tabs.ultimate-guitar.com/e/ed_sheeran/i_see_fire_solo_tab.htm

I See Fire - Ed Sheeran

STUDIO VERSION

tabbed by Andreas Schwarz

Capo on 6th fret


[INTRO]

e|---------------------x--|--------x---------x--|
B|-----------------0h1-x--|-----3--3---------0--|
G|--2h4p2p0------0-0---x--|-0h2----2--0------0--|
D|-----------0h2---0h2-x--|-0------0--2------x--|
A|-----------------3---x--|--------x--2------x--|
E|--0------------------x--|--------x--0----0-x--|

e|---------------------x--|--------x---------x--|
B|-----------------0h1-x--|--------x---------x--|
G|--2h4p2p0------0-0---x--|-0h2----x--0------x--|
D|-----------0h2---0h2-x--|-0------4--2------x--|
A|-----------------3---x--|--------x--2------x--|
E|--0------------------x--|--------x--0----0-x--|


[VERSE]

e|-----------------------------|---------------------------|
B|----0--------3---------------|----0--------3-------------|
G|-0--x-----x--0h2--x--0----x--|-0--x-----x--0h2--x--0--x--|
D|-2--x--0--x--0----x--0h2--x--|-2--x--0--x--0----x--2--x--|
A|-2--x--2--x-------x--3----x--|-2--x--2--x-------x--3--x--|
E|-0--x--3--x-------x-------x--|-0--x--3--x-------x-----x--|

e|-----------------------------|---------------------------|
B|----0--------3---------------|-1--0--3-------------------|
G|-0--x-----x--0h2--x--0----x--|-0--x--0--x---0------------|
D|-2--x--0--x--0----x--0h2--x--|-2--x--0--x---2------------|
A|-2--x--2--x-------x--3----x--|-0--x--2--x---3------------|
E|-0--x--3--x-------x-------x--|----x-----x----------------| 
                                [sometimes played twice: 
                                 check bottom of the tab]


[TURNAROUND]

e|---------------------x--|--------x---------x--|
B|---------------------x--|--------3---------x--|
G|--2h4p2p0------0-0---x--|-0h2----2--0------x--|
D|-----------0h2---0h2-x--|-0------0--2------x--|
A|-----------------3---x--|--------x--2------x--|
E|--0------------------x--|--------x--0------x--|


[CHORUS]

   Em7    Cadd9      Dsus4    Em7
e|---3----------3--|-3---3--------3--|
B|---3----------3--|-3---3--------3--|
G|-0-0----0---0-0--|-0h2-2----0-0-0--| x3
D|-2------0h2-2----|-0---0----2-2----|
A|-2------3---3----|----------2-2----|
E|-0---------------|----------0-0----|

  Em7    Cadd9      Dsus4     Am7
e|---3----------3--|-3---3-------| -->"...and I hope that
B|---3----------3--|-3---3-------|     you remember me"
G|-0-0----0---0-0--|-0h2-2----0--|
D|-2------0h2-2----|-0---0----2--|
A|-2------3---3----|----------0--|
E|-0---------------|-------------|


[BRIDGE]

e|-0-0--0-0--|--3-3--2-2--|
B|-1-1--0-0--|--3-3--3-3--|
G|-0-0--0-0--|--0-0--2-2--| x3
D|-2-2--2-2--|--0-0--0-0--|
A|-0-0--2-2--|--2-2-------|
E|------0-0--|--3-3-------|

e|----------------------------2-2-2-2--|
B|-1-1-1-1--1-1-3-3--1-1-1-1--3-3-3-3--|
G|-0-0-0-0--0-0-0-0--0-0-0-0--2-2-2-2--|
D|-2-2-2-2--2-2-0-0--2-2-2-2--0-0-0-0--|
A|-0-0-0-0--0-0-2-2--3-3-3-3-----------|
E|-------------------------------------|

**************************************************************

h  Hammer on
p  Pull off
x  Dead note

**************************************************************

[Intro]
[Verse]

[Turnaround]

[Verse] (last part is played twice)
[Chorus]

[Intro]

[Verse] (last part is played twice)
[Chorus] (instead of Dsus4 he plays a normal D chord)

[Bridge]
[Chorus]
[Chorus]

Source 3 : https://tabs.ultimate-guitar.com/e/ed_sheeran/i_see_fire_ver3_tab.htm