Tablature guitare : Ed Sheeran – Firefly

-------------------------------------------------------------------------------
                             Firefly - Ed Sheeran
-------------------------------------------------------------------------------
Tabbed by: Josh Richardson

Tuning: E Standard EADGBe (no capo)


This song is all done with finger-picking, so put your plectrum down!
It's easier without one too, and it sounds fuller. 

[Intro]


e|-----------------------------------------------|
B|-----------------------------------------------|
G|-----------------------------------------------|
D|-----------------------------------------------|
A|---6-h7-------6-h7/9/11-------6-h7-\2----------|
E|0----------0-----------------0-----------------|


[Pre-Verse]

e|----------------------------------------------------------------------------------------------|
B|----------------------------------------------------------------------------------------------|
G|----------------------------------------------------------------------------------------------|
D|----------------------------------------------------------------------------------------------|
A|---7-----7-----7-----7-----7-----7-----6-----6-----7-----7-----7-----7-----7-----7-----4-----4|
E|0-----0-----0-----0-----0-----0-----5-----5-----9-----9-----9-----9-----9-----9-----5-----5---|

e|----------------------------------------------------------------------------------------------|
B|----------------------------------------------------------------------------------------------|
G|----------------------------------------------------------------------------------------------|
D|----------------------------------------------------------------------------------------------|
A|---7-----7-----7-----7-----7-----7-----6-----6-----7-----7-----7-----7-----7-----7-----7-----7|
E|0-----0-----0-----0-----0-----0-----7-----7-----0-----0-----0-----0-----0-----0-----0-----0---|


[Verse 1]

I fell in love...
e|----------------------------------------------------------------------------------------------|
B|----------------------------------------------------------------------------------------------|
G|----------------------------------------------------------------------------------------------|
D|----------------------------------------------------------------------------------------------|
A|---7-----7-----7-----7-----7-----7-----6-----6-----7-----7-----7-----7-----7-----7-----4-----4|
E|0-----0-----0-----0-----0-----0-----5-----5-----9-----9-----9-----9-----9-----9-----5-----5---| x3


... Feet                             in my        shoes
e|----------------------------------------------------------------------------------------------|
B|----------------------------------------------------------------------------------------------|
G|----------------------------------------------------------------------------------------------|
D|----------------------------------------------------------------------------------------------|
A|---7-----7-----7-----7-----7-----7-----6-----6-----7-----7-----7-----7-----7-----7-----7-----7|
E|0-----0-----0-----0-----0-----0-----7-----7-----0-----0-----0-----0-----0-----0-----0-----0---| x1


[Verse 2]

Little one...
e|----------------------------------------------------------------------------------------------|
B|----------------------------------------------------------------------------------------------|
G|----------------------------------------------------------------------------------------------|
D|----------------------------------------------------------------------------------------------|
A|---7-----7-----7-----7-----7-----7-----6-----6-----7-----7-----7-----7-----7-----7-----4-----4|
E|0-----0-----0-----0-----0-----0-----5-----5-----9-----9-----9-----9-----9-----9-----5-----5---|x3

... Shooting stars                          
e|----------------------------------------------------------------------------------------------|
B|----------------------------------------------------------------------------------------------|
G|----------------------------------------------------------------------------------------------|
D|----------------------------------------------------------------------------------------------|
A|---7-----7-----7-----7-----7-----7-----6-----6-----7-----7-----7-----7-----7-----7-----7-----7|
E|0-----0-----0-----0-----0-----0-----7-----7-----0-----0-----0-----0-----0-----0-----0-----0---| x1


[Pre-Chorus]

Hold me tight...
e|----------------------------------------------------------------------------------------------|
B|----------------------------------------------------------------------------------------------|
G|----------------------------------------------------------------------------------------------|
D|----------------------------------------------------------------------------------------------|
A|---4-----4-----4-----4-----4-----4-----4-----4-----7-----7-----7-----7-----7-----7-----7-----7|
E|5-----5-----5-----5-----5-----5-----5-----5-----9-----9-----9-----9-----9-----9-----9-----9---| x2


[Chorus]

There's a firefly...
e|----------------------------------------------------------------------------------------------|
B|----------------------------------------------------------------------------------------------|
G|----------------------------------------------------------------------------------------------|
D|----------------------------------------------------------------------------------------------|
A|---7-----7-----7-----7-----6-----6-----6-----6-----7-----7-----7-----7-----4-----4-----4-----4|
E|0-----0-----0-----0-----5-----5-----5-----5-----9-----9-----9-----9-----5-----5-----5-----5---| x4


e|----------------------------------------------------------------------------------------------|
B|----------------------------------------------------------------------------------------------|
G|----------------------------------------------------------------------------------------------|
D|----------------------------------------------------------------------------------------------|
A|---7-----7-----7-----7-----7-----7-----7-----7-----7-----7-----7-----7-----7-----7-----7-----7|
E|0-----0-----0-----0-----0-----0-----0-----0-----0-----0-----0-----0-----0-----0-----0-----0---| x1


[Verse 3]

Teach my skin...
e|----------------------------------------------------------------------------------------------|
B|----------------------------------------------------------------------------------------------|
G|----------------------------------------------------------------------------------------------|
D|----------------------------------------------------------------------------------------------|
A|---7-----7-----7-----7-----7-----7-----6-----6-----7-----7-----7-----7-----7-----7-----4-----4|
E|0-----0-----0-----0-----0-----0-----5-----5-----9-----9-----9-----9-----9-----9-----5-----5---| x3

... It's too cold                         
e|----------------------------------------------------------------------------------------------|
B|----------------------------------------------------------------------------------------------|
G|----------------------------------------------------------------------------------------------|
D|----------------------------------------------------------------------------------------------|
A|---7-----7-----7-----7-----7-----7-----6-----6-----7-----7-----7-----7-----7-----7-----7-----7|
E|0-----0-----0-----0-----0-----0-----7-----7-----0-----0-----0-----0-----0-----0-----0-----0---| x1


[Verse 4]

Close Your Eyes...
e|----------------------------------------------------------------------------------------------|
B|----------------------------------------------------------------------------------------------|
G|----------------------------------------------------------------------------------------------|
D|----------------------------------------------------------------------------------------------|
A|---7-----7-----7-----7-----7-----7-----6-----6-----7-----7-----7-----7-----7-----7-----4-----4|
E|0-----0-----0-----0-----0-----0-----5-----5-----9-----9-----9-----9-----9-----9-----5-----5---| x3

... You're the one                       
e|----------------------------------------------------------------------------------------------|
B|----------------------------------------------------------------------------------------------|
G|----------------------------------------------------------------------------------------------|
D|----------------------------------------------------------------------------------------------|
A|---7-----7-----7-----7-----7-----7-----6-----6-----7-----7-----7-----7-----7-----7-----7-----7|
E|0-----0-----0-----0-----0-----0-----7-----7-----0-----0-----0-----0-----0-----0-----0-----0---| x1


[Pre-Chorus]

Hold me tight...
e|----------------------------------------------------------------------------------------------|
B|----------------------------------------------------------------------------------------------|
G|----------------------------------------------------------------------------------------------|
D|----------------------------------------------------------------------------------------------|
A|---4-----4-----4-----4-----4-----4-----4-----4-----7-----7-----7-----7-----7-----7-----7-----7|
E|5-----5-----5-----5-----5-----5-----5-----5-----9-----9-----9-----9-----9-----9-----9-----9---| x2


[Chorus]

There's a firefly...
e|----------------------------------------------------------------------------------------------|
B|----------------------------------------------------------------------------------------------|
G|----------------------------------------------------------------------------------------------|
D|----------------------------------------------------------------------------------------------|
A|---7-----7-----7-----7-----6-----6-----6-----6-----7-----7-----7-----7-----4-----4-----4-----4|
E|0-----0-----0-----0-----5-----5-----5-----5-----9-----9-----9-----9-----5-----5-----5-----5---| x4


e|----------------------------------------------------------------------------------------------|
B|----------------------------------------------------------------------------------------------|
G|----------------------------------------------------------------------------------------------|
D|----------------------------------------------------------------------------------------------|
A|---7-----7-----7-----7-----7-----7-----7-----7-----7-----7-----7-----7-----7-----7-----7-----7|
E|0-----0-----0-----0-----0-----0-----0-----0-----0-----0-----0-----0-----0-----0-----0-----0---| x1


[Solo Сhords]

It's only been...
e|----------------------------------------------------------------------------------------------|
B|----------------------------------------------------------------------------------------------|
G|----------------------------------------------------------------------------------------------|
D|----------------------------------------------------------------------------------------------|
A|---4-----4-----4-----4-----4-----4-----4-----4-----7-----7-----7-----7-----7-----7-----7-----7|
E|5-----5-----5-----5-----5-----5-----5-----5-----9-----9-----9-----9-----9-----9-----9-----9---| x4


[Chorus]

There's a firefly...
e|----------------------------------------------------------------------------------------------|
B|----------------------------------------------------------------------------------------------|
G|----------------------------------------------------------------------------------------------|
D|----------------------------------------------------------------------------------------------|
A|---7-----7-----7-----7-----6-----6-----6-----6-----7-----7-----7-----7-----4-----4-----4-----4|
E|0-----0-----0-----0-----5-----5-----5-----5-----9-----9-----9-----9-----5-----5-----5-----5---| x4



e|----------------------------------------------------------------------------------------------|
B|----------------------------------------------------------------------------------------------|
G|----------------------------------------------------------------------------------------------|
D|----------------------------------------------------------------------------------------------|
A|---7-----7-----7-----7-----7-----7-----7-----7-----7-----7-----7-----7-----7-----7-----7-----7|
E|0-----0-----0-----0-----0-----0-----0-----0-----0-----0-----0-----0-----0-----0-----0-----0---| x1
 

************************************

| /   slide up
| \   slide down
| h   hammer-on

************************************

Commentaire :

Wicked tab mate! One thing; I find if you play the following pre-chorus it leads nicely into the chorus. Brilliant tab though

____________________________________________________________

Hold me tight...
e|-----------------------------------------------|
B|-----------------------------------------------|
G|-----------------------------------------------|
D|-----------------------------------------------|
A|---4-----4-----4-----4-----4-----4-----4-----4-|
E|5-----5-----5-----5-----5-----5-----5-----5----|

e|-----------------------------------------------|
B|-----------------------------------------------|
G|-----------------------------------------------|
D|-----------------------------------------------|
A|---7-----7-----7-----7-----7-----7-----7-----7-|
E|9-----9-----9-----9-----9-----9-----9-----9----|

Feeling like...
e|-----------------------------------------------|
B|-----------------------------------------------|
G|-----------------------------------------------|
D|-----------------------------------------------|
A|---4-----4-----4-----4-----4-----4-----4-----4-|
E|5-----5-----5-----5-----5-----5-----5-----5----|

e|-----------------------------------------------|
B|-----------------------------------------------|
G|-----------------------------------------------|
D|-----------------------------------------------|
A|---7-----7-----7-----7--6----------------------|
E|9-----9-----9-----9-----7----------------------|
(Let ring)

Source : https://tabs.ultimate-guitar.com/e/ed_sheeran/firefly_tab.htm